Song name
# A B C D E F G H I J K L M N O P Q R S T U V W X Y Z

The Hives - Inspection Wise 1999 tab

Hello!
I saw there was some other tabs but they wasn't complete.
This tab IS RIGHT, I'm sure :)

******************************


Intro:

e-------------------------------------------------------------------|
B-x-x-x-8-5---5-----------------------------------------------------|
G-----------7------------------------------------x-x-x-7-9-7-9------|
D-----------------x-x-x-7-5---5--x-x-x-7-5---5----------------------|
A---------------------------7--------------7------------------------|
E-------------------------------------------------------------------|

Then guitar 2 comes in, guitar 1 continues:


Gtr 2:
e-------------------------------------------------------------------|
B-------------------------------------------------------------------|
G-------------------------------------------------------------------|
D-9----9-8-7------7--------9---7---7--------------------------------|
A-7----7-6-5----9-5-7----7-7-9-5-7-9--------------------------------|
E---------------7---5----5---7---5----------------------------------| X2

Gtr 1:
e-------------------------------------------------------------------|
B-x-x-x-8-5---5-----------------------------------------------------|
G-----------7------------------------------------x-x-x-7-9-7-9------|
D-----------------x-x-x-7-5---5--x-x-x-7-5---5----------------------|
A---------------------------7--------------7------------------------|
E-------------------------------------------------------------------| X2

Verse:

e-------------------------------------------------------------------|
B-------------------------------------------------------------------|
G-------------------------------------------------------------------|
D-9----9-8-7------7--------9---7---7--------------------------------|
A-7----7-6-5----9-5-7----7-7-9-5-7-9--------------------------------|
E---------------7---5----5---7---5----------------------------------| X2

Chorus:

Gtr 1:
e-------------------------------------------------------------------|
B-------------------------------------------------------------------|
G-------------------------------------------------------------------|
D----------------------------------9-9-9-9-9-9-9-9------------------|
A-9-9-9-9-9-9-9-9-9-9-9-9-9-9-9-9--7-7-7-7-7-7-7-7--7-7-7-7-7-7-7-7-|
E-7-7-7-7-7-7-7-7-7-7-7-7-7-7-7-7-------------------5-5-5-5-5-5-5-5-| X2

If you listen carefully, you will here a second guitar playing this at the same time:


Gtr 2:
e-------------------------------------------------------------------|
B-------------------------------------------------------------------|
G-------------------------------------------------------------------|
D----------------------5---5---5---5--------------------------------|
A-----5---5---5------7---7---7---7----------------------------------|
E---7---7---7---7---------------------------------------------------| X4

After chorus:

e-------------------------------------------------------------------|
B---------5---5-----------------------------------------------------|
G-----------7------------------------------------x-x-x-7-9-7-9------|
D-----------------x-x-x-7-5---5--x-x-x-7-5---5----------------------|
A---------------------------7--------------7------------------------|
E-------------------------------------------------------------------|

Verse:

e-------------------------------------------------------------------|
B-------------------------------------------------------------------|
G-------------------------------------------------------------------|
D-9----9-8-7------7--------9---7---7--------------------------------|
A-7----7-6-5----9-5-7----7-7-9-5-7-9--------------------------------|
E---------------7---5----5---7---5----------------------------------| X2

Chorus:

Gtr 1:
e-------------------------------------------------------------------|
B-------------------------------------------------------------------|
G-------------------------------------------------------------------|
D----------------------------------9-9-9-9-9-9-9-9------------------|
A-9-9-9-9-9-9-9-9-9-9-9-9-9-9-9-9--7-7-7-7-7-7-7-7--7-7-7-7-7-7-7-7-|
E-7-7-7-7-7-7-7-7-7-7-7-7-7-7-7-7-------------------5-5-5-5-5-5-5-5-| X4

Gtr 2:
e-------------------------------------------------------------------|
B-------------------------------------------------------------------|
G-------------------------------------------------------------------|
D----------------------5---5---5---5--------------------------------|
A-----5---5---5------7---7---7---7----------------------------------|
E---7---7---7---7---------------------------------------------------| X8

Outro:

e--------------------------------------------------------------------|
B--------------------------------------------------------------------|
G--------------------------------------------------------------------|
D--------------------------------------------------------------------|
A-----5---5---5--------5---5---5--------5---5---5--------5---5---5---|
E---7---7---7---7----7---7---7---7----7---7---7---7----7---7---7---7-|
Tap to rate this tab
# A B C D E F G H I J K L M N O P Q R S T U V W X Y Z