Song name
# A B C D E F G H I J K L M N O P Q R S T U V W X Y Z

The Honorary Title - Stay Away chords

Highlighted       Show chord diagrams
      the Honorary Title
 - Stay Away (accousic version) -
tabbed by Oliverxxx1

capo 4th fret 
Tuning: standart

intro: played 2 times

    6x            6x         8x    8x
e|---0---0-0------0---0--0---0-----2----------------------------------------|
B|---1---3-1------1---3--1---3-----3----------------------------------------|
G|---2---2-2------0---0--0---0-----2----------------------------------------|
D|---2---2-2------2---2--2---0-----0----------------------------------------|
A|---0---0-0------3---3--3---2-----x----------------------------------------|
E|---x---x-x------0---0--0---3-----x----------------------------------------|


1. verse: (5 Times)

"Are you not the slightest bit confused? ....on to me entirely."

    6x        6x        6x        8x
e|---0--0 0----0--0-0----0--0-0---0----------------------------------------|
B|---3--5-3----1--3-1----3--3-3---3----------------------------------------|
G|---0--0-0----0--0-0----0--0-0---0----------------------------------------|
D|---4--4-4----2--2-2----0--0-0---0----------------------------------------|
A|---5--5-5----3--3-3----2--3-2---2----------------------------------------|
E|---0--0-0----0--0-0----3--3-3---3----------------------------------------|


Pre Chorus (2 Times)(Studio version: C & G chord just strummed once per beat)

"Stay away from me.......unless you're gonna see me out"

     C     G  Gsus4
    16x    6x 2x       
e|---0-----0--0----------|
B|---1-----3--3----------|
G|---0-----0--0----------|
D|---2-----0--0----------|
A|---3-----2--3----------|
E|---0-----3--3----------|

Chorus  (2 Times /Last D tact played twice second time)

"No, I can't dance ..... until I have to go"

    Am     C      G     D
    8x     8x    8x    8x / 16x
e|---0------0-----0-----2--------------|
B|---1------1-----3-----3--------------|
G|---2------0-----0-----2--------------|
D|---2------2-----0-----0--------------|
A|---0------3-----2-----x--------------|
E|---x------0-----3-----x--------------|


instrumental: 1 Time like verse

2. verse (4 times)

"Trust me when I say .... on to me entirely"

    6x        6x        6x        8x
e|---0--0 0----0--0-0----0--0-0---0----------------------------------------|
B|---3--5-3----1--3-1----3--3-3---3----------------------------------------|
G|---0--0-0----0--0-0----0--0-0---0----------------------------------------|
D|---4--4-4----2--2-2----0--0-0---0----------------------------------------|
A|---5--5-5----3--3-3----2--3-2---2----------------------------------------|
E|---0--0-0----0--0-0----3--3-3---3----------------------------------------|


Pre Chorus (2 Times)

"Stay away from me.......unless you're gonna see me out"

     C     G  Gsus4
    16x    6x 2x       
e|---0-----0--0----------|
B|---1-----3--3----------|
G|---0-----0--0----------|
D|---2-----0--0----------|
A|---3-----2--3----------|
E|---0-----3--3----------|

2x Chorus  (2 Times /Last D tact played twice second time)

"No, I can't dance ..... until I have to go"

    Am     C      G     D
    8x     8x    8x    8x / 16x
e|---0------0-----0-----2--------------|
B|---1------1-----3-----3--------------|
G|---2------0-----0-----2--------------|
D|---2------2-----0-----0--------------|     X 2
A|---0------3-----2-----x--------------|
E|---x------0-----3-----x--------------|



outro:

Stay away from, stay away from me. 
   Am            C               G     
  1x             1x              1x    
e|-0-------------0---------------0-------|
B|-1-------------1---------------3-------|
G|-2-------------0---------------0-------|
D|-2-------------2---------------0-------|    
A|-0-------------3---------------2-------|
E|-x-------------0---------------3-------|



Tap to rate this tab
 
# A B C D E F G H I J K L M N O P Q R S T U V W X Y Z