Song name
# A B C D E F G H I J K L M N O P Q R S T U V W X Y Z

The Honorary Title - Snow Day tab

Intro/First Verse:
E|-0-0-0-0-0-0-0-0-0-0-0-0-0-0-0-0| 
B|-0-0-0-0-0-0-0-0-0-0-0-0-0-0-0-0|
G|-4-0-4-0-4-0-4-0-4-0-4-0-4-0-4-0|
D|-2-2-2-2-2-2-2-2-0-0-0-0-0-0-0-0|
A|-3-3-3-3-3-3-3-3-2-2-2-2-2-2-2-2|
E|-0-0-0-0-0-0-0-0-3-3-3-3-3-3-3-3|
play 8 times

Pre-Chorus:
E|-33333333-33333333-33333333-33333333|
B|-33333333-33333333-33333333-33333333|
G|-00000000-22222222-00000000-00000000|
D|-22222222-00000000-00000000-22222222|
A|-22222222-00000000-22222222-33333333|
E|-00000000-22222222-33333333-00000000|

E|-33333333-33333333-33333333-3|
B|-33333333-33333333-33333333-3|
G|-00000000-22222222-00000000-0|
D|-22222222-00000000-00000000-2|
A|-22222222-00000000-22222222-3|
E|-00000000-22222222-33333333-0|

Second Verse:
E|-0-0-0-0-0-0-0-0-0-0-0-0-0-0-0-0| 
A|-0-0-0-0-0-0-0-0-0-0-0-0-0-0-0-0|
B|-4-0-4-0-4-0-4-0-4-0-4-0-4-0-4-0|
D|-2-2-2-2-2-2-2-2-0-0-0-0-0-0-0-0|
A|-3-3-3-3-3-3-3-3-2-2-2-2-2-2-2-2|
E|-0-0-0-0-0-0-0-0-3-3-3-3-3-3-3-3|
play 9 times

Pre-Chorus:
E|-33333333-33333333-33333333-33333333|
B|-33333333-33333333-33333333-33333333|
G|-00000000-22222222-00000000-00000000|
D|-22222222-00000000-00000000-22222222|
A|-22222222-00000000-22222222-33333333|
E|-00000000-22222222-33333333-00000000|

E|-33333333-33333333-33333333-3|
B|-33333333-33333333-33333333-3|
G|-00000000-22222222-00000000-0|
D|-22222222-00000000-00000000-2|
A|-22222222-00000000-22222222-3|
E|-00000000-22222222-33333333-0|

Chorus:
E|-33333333-33333333-33333333-33333333|
B|-33333333-33333333-33333333-33333333|
G|-00000000-00000000-00000000-00000000|
D|-22222222-22222222-22222222-22222222|
A|-22222222-33333333-22222222-33333333|
E|-00000000-00000000-00000000-00000000|

Pre Chorus:
E|-33333333-33333333-33333333-33333333|
B|-33333333-33333333-33333333-33333333|
G|-00000000-22222222-00000000-00000000|
D|-22222222-00000000-00000000-22222222|
A|-22222222-00000000-22222222-33333333|
E|-00000000-22222222-33333333-00000000|

E|-33333333-33333333-33333333-3|
B|-33333333-33333333-33333333-3|
G|-00000000-22222222-00000000-0|
D|-22222222-00000000-00000000-2|
A|-22222222-00000000-22222222-3|
E|-00000000-22222222-33333333-0|

Bridge:
E|------------------------------|
B|------------------------------|
G|------------------0---4-4-2-0-|
D|-----5-0-4-5----2---2---------|
A|---2----------3---------------|
E|-3----------------------------|
play this part 4 times and then you play this

E|------------------------------3333-3333---------3333-3333|
B|------------------------------3333-3333---------3333-3333|
G|------------------0---4-2-----0000-0000-4-2-----0000-0000|
D|-----5-0-4-5----2---2-----4-5-2222-0000-----4-5-2222-0000|
A|---2----------3---------------3333-2222---------3333-2222|
E|-3----------------------------0000-3333---------0000-3333|

E|-33333333-33333333-33333333-33333333|
B|-33333333-33333333-33333333-33333333|
G|-00000000-22222222-00000000-00000000|
D|-22222222-00000000-00000000-22222222|
A|-22222222-00000000-22222222-33333333|
E|-00000000-22222222-33333333-00000000|

E|-33333333-33333333-33333333-33333333|
B|-33333333-33333333-33333333-33333333|
G|-00000000-22222222-00000000-00000000|
D|-22222222-00000000-00000000-22222222|
A|-22222222-00000000-22222222-33333333|
E|-00000000-22222222-33333333-00000000|

Chorus:
E|-33333333-33333333-33333333-33333333|
B|-33333333-33333333-33333333-33333333|
G|-00000000-00000000-00000000-00000000|
D|-22222222-22222222-22222222-22222222|
A|-22222222-33333333-22222222-33333333|
E|-00000000-00000000-00000000-00000000|

Pre-Chorus:
E|-33333333-33333333-33333333-33333333|
B|-33333333-33333333-33333333-33333333|
G|-00000000-22222222-00000000-00000000|
D|-22222222-00000000-00000000-22222222|
A|-22222222-00000000-22222222-33333333|
E|-00000000-22222222-33333333-00000000|

E|-33333333-33333333-33333333-33333333|
B|-33333333-33333333-33333333-33333333|
G|-00000000-22222222-00000000-00000000|
D|-22222222-00000000-00000000-22222222|
A|-22222222-00000000-22222222-33333333|
E|-00000000-22222222-33333333-00000000|

Chorus:
E|-33333333-33333333-33333333-33333333|
B|-33333333-33333333-33333333-33333333|
G|-00000000-00000000-00000000-00000000|
D|-22222222-22222222-22222222-22222222|
A|-22222222-33333333-22222222-33333333|
E|-00000000-00000000-00000000-00000000|

E|-33333333-33333333-33333333|
B|-33333333-33333333-33333333|
G|-00000000-00000000-00000000|
D|-22222222-22222222-22222222|
A|-22222222-33333333-22222222|
E|-00000000-00000000-00000000|

End On:
E|-3-|
B|-3-|
G|-0-|
D|-2-|
A|-3-|
E|-0-|


Tap to rate this tab
 
# A B C D E F G H I J K L M N O P Q R S T U V W X Y Z