Song name
# A B C D E F G H I J K L M N O P Q R S T U V W X Y Z

The Honorary Title - Frame By Frame tab

Artist: The Honorary Title
Song: Frame By Frame
Album: Anything Else But The Truth
Tuning: Standard

Intro:
|----------------|----------------|----------------|----------------|
|----------------|----------------|----------------|----------------|
|----------------|----------------|4-4-4-4-4-4-4-4-|9-9-9-9-9-9-9-9-|
|9-9-9-9-9-9-9-9-|9-9-9-9-9-9-9-9-|x-x-x-x-x-x-x-x-|9-9-9-9-9-9-9-9-| x2
|7-7-7-7-7-7-7-7-|6-6-6-6-6-6-6-6-|4-4-4-4-4-4-4-4-|0-0-0-0-0-0-0-0-|
|0-0-0-0-0-0-0-0-|0-0-0-0-0-0-0-0-|0-0-0-0-0-0-0-0-|0-0-0-0-0-0-0-0-|

Verse:
|----------------|----------------|----------------|----------------|
|----------------|----------------|----------------|----------------|
|----------------|----------------|----------------|----------------|
|9-9-9-9-9-9-9-9-|9-9-9-9-9-9-9-9-|9-9-9-9-9-9-9-9-|9-9-9-9-9-9-9-9-|
|7-7-7-7-7-7-7-7-|7-7-7-7-7-7-7-7-|7-7-7-7-7-7-7-7-|7-7-7-7-7-7-7-7-|
|0-0-0-0-0-0-0-0-|0-0-0-0-7-7-5-5-|0-0-0-0-0-0-0-0-|0-0-0-0-7-7-5-5-|

|----------------|----------------|----------------|----------------|
|----------------|----------------|----------------|----------------|
|----------------|----------------|----------------|----------------|
|9-9-9-9-9-9-9-9-|9-9-9-9-9-9-9-9-|----------------|----------------|
|7-7-7-7-7-7-7-7-|7-7-7-7-7-7-7-7-|----------------|----------------|
|0-0-0-0-0-0-0-0-|0-0-0-0-7-7-5-5-|2-2-2-2-2-2-2-2-|2-2-2-2-2-2-2-2-|

|----------------|----------------|----------------|----------------|
|----------------|----------------|----------------|----------------|
|----------------|----------------|4-4-4-4-4-4-4-4-|9-9-9-9-9-9-9-9-|
|9-9-9-9-9-9-9-9-|9-9-9-9-9-9-9-9-|x-x-x-x-x-x-x-x-|9-9-9-9-9-9-9-9-|
|7-7-7-7-7-7-7-7-|6-6-6-6-6-6-6-6-|4-4-4-4-4-4-4-4-|0-0-0-0-0-0-0-0-|
|0-0-0-0-0-0-0-0-|0-0-0-0-0-0-0-0-|0-0-0-0-0-0-0-0-|0-0-0-0-0-0-0-0-|

|----------------|----------------|----------------|----------------|----------------|
|----------------|----------------|----------------|----------------|----------------|
|----------------|----------------|4-4-4-4-4-4-4-4-|9-9-9-9-9-9-9-9-|9-9-9-9-9-9-9-9-|
|9-9-9-9-9-9-9-9-|9-9-9-9-9-9-9-9-|x-x-x-x-x-x-x-x-|9-9-9-9-9-9-9-9-|9-9-9-9-9-9-9-9-| x3
|7-7-7-7-7-7-7-7-|6-6-6-6-6-6-6-6-|4-4-4-4-4-4-4-4-|0-0-0-0-0-0-0-0-|0-0-0-0-0-0-0-0-|
|0-0-0-0-0-0-0-0-|0-0-0-0-0-0-0-0-|0-0-0-0-0-0-0-0-|0-0-0-0-0-0-0-0-|0-0-0-0-0-0-0-0-|

Chorus:
|----------------|----------------|----------------|  \
|----------------|----------------|----------------|  |
|----------------|----------------|----------------|  |
|----------------|----------------|----------------|  |
|----------------|----------------|4-4-4-4-4-4-4-4-|  |
|2-2-2-2-2-2-2-2-|4-4-4-4-4-4-4-4-|----------------|  \
                                                       x2
|----------------|----------------|----------------|  /
|----------------|----------------|----------------|  |
|----------------|----------------|----------------|  |
|----------------|----------------|----------------|  |
|----------------|----------------|----------------|  |
|7-7-7-7-7-7-7-7-|5-5-5-5-5-5-5-5-|5-5-5-5-5-5-5-5-|  /

Pre-Verse:
|----------------|----------------|----------------|----------------|
|----------------|----------------|----------------|----------------|
|----------------|----------------|4-4-4-4-4-4-4-4-|9-9-9-9-9-9-9-9-|
|9-9-9-9-9-9-9-9-|9-9-9-9-9-9-9-9-|x-x-x-x-x-x-x-x-|9-9-9-9-9-9-9-9-| x2
|7-7-7-7-7-7-7-7-|6-6-6-6-6-6-6-6-|4-4-4-4-4-4-4-4-|0-0-0-0-0-0-0-0-|
|0-0-0-0-0-0-0-0-|0-0-0-0-0-0-0-0-|0-0-0-0-0-0-0-0-|0-0-0-0-0-0-0-0-|

Verse:
|----------------|----------------|----------------|----------------|----------------|
|----------------|----------------|----------------|----------------|----------------|
|----------------|----------------|4-4-4-4-4-4-4-4-|9-9-9-9-9-9-9-9-|9-9-9-9-9-9-9-9-|
|9-9-9-9-9-9-9-9-|9-9-9-9-9-9-9-9-|x-x-x-x-x-x-x-x-|9-9-9-9-9-9-9-9-|9-9-9-9-9-9-9-9-| x2
|7-7-7-7-7-7-7-7-|6-6-6-6-6-6-6-6-|4-4-4-4-4-4-4-4-|0-0-0-0-0-0-0-0-|0-0-0-0-0-0-0-0-|
|0-0-0-0-0-0-0-0-|0-0-0-0-0-0-0-0-|0-0-0-0-0-0-0-0-|0-0-0-0-0-0-0-0-|0-0-0-0-0-0-0-0-|

Chorus

Bridge:
|----------------|----------------|----------------|----------------|
|----------------|----------------|----------------|----------------|
|----------------|----------------|----------------|----------------|
|----------------|----------------|----------------|----------------|
|----------------|----------------|----------------|----------------|
|0-0-0-0-0-0-0-0-|0-0-0-0-0-0-0-0-|0-0-0-0-0-0-0-0-|0-0-0-0-0-0-0-0-|

|----------------|----------------|----------------|----------------|
|----------------|----------------|----------------|----------------|
|----------------|----------------|----------------|----------------|
|----------------|----------------|----------------|----------------| x2
|----------------|----------------|----------------|----------------|
|9-9-9-9-9-9-9-9-|7-7-7-7-7-7-7-7-|5-5-5-5-5-5-5-5-|5-5-5-5-5-5-5-5-|

Chorus

Outro:
|----------------|----------------|----------------|----------------|
|----------------|----------------|----------------|----------------|
|----------------|----------------|4-4-4-4-4-4-4-4-|9-9-9-9-9-9-9-9-|
|9-9-9-9-9-9-9-9-|9-9-9-9-9-9-9-9-|x-x-x-x-x-x-x-x-|9-9-9-9-9-9-9-9-| x3
|7-7-7-7-7-7-7-7-|6-6-6-6-6-6-6-6-|4-4-4-4-4-4-4-4-|0-0-0-0-0-0-0-0-|
|0-0-0-0-0-0-0-0-|0-0-0-0-0-0-0-0-|0-0-0-0-0-0-0-0-|0-0-0-0-0-0-0-0-|

|----------------|----------------|----------------|----------------|
|----------------|----------------|----------------|----------------|
|----------------|----------------|4-4-4-4-4-4-4-4-|9---------------|
|9-9-9-9-9-9-9-9-|9-9-9-9-9-9-9-9-|x-x-x-x-x-x-x-x-|9---------------|
|7-7-7-7-7-7-7-7-|6-6-6-6-6-6-6-6-|4-4-4-4-4-4-4-4-|0---------------|
|0-0-0-0-0-0-0-0-|0-0-0-0-0-0-0-0-|0-0-0-0-0-0-0-0-|0---------------|
Tap to rate this tab
# A B C D E F G H I J K L M N O P Q R S T U V W X Y Z