Song name
# A B C D E F G H I J K L M N O P Q R S T U V W X Y Z

The Kill - The Kill tab

Band: The Kill
Album: The Soundtrack To Your Violence
Song: The Kill [originally by Napalm Death]



Suffixes for bend:
fb - full bend       hb - half bend
qb - quarter bend    t - tap bend
^ - Hold bend        r - release bend
~ - vibrato bend

Suffixes for harmonic:
ph - pinched harmonic      nh  natural harmonic
ah  artificial harmonic   hh  harp harmonic

Suffixes for mute:
.  palm mute            x  staccato mute
, - light palm mute      ; - heavy palm mute

Other:
/ - slide up to            \ - slide down to       
h - hammer on              p - pull off
 - sustained note         * - see comment
" - tremolo note           <> - Trill
L  left channel only      R  right channel only
= - 12 string guitar part 

Tuning E A D G B E

Riff 1 (0:00)
|----------------------------------------|
|----------------------------------------|
|----------------------------------------|
|----------------------------------------|
|-3--4--2---3--4--2---3--4--2---3--4--3--|
|-1--2--0---1--2--0---1--2--0---1--2--1--|

Riff 2a (0:06)
|-----------------------------------------------------------------|
|-----------------------------------------------------------------|
|-----------------------------------------------------------------|
|-----------------------------------------------------------------|
|-----------------------------------------------------------------|
|-1"-2"-0"--1"-2"-0"--1"-2"-0"--1"-2"-0"--5"-4"-5"-4"-5"-4"-5"-4"-|

Riff 2b (0:12) play twice
|-------------------------------------------------------------|
|-------------------------------------------------------------|
|-------------------------------------------------------------|
|-------------------------------------------------------------|
|-3-/4-\2--3-/4-\2--3-/4-\2--3-/4-\2--7-\6--7-\6--7-\6--7-\6--|
|-1-/2-\0--1-/2-\0--1-/2-\0--1-/2-\0--5-\4--5-\4--5-\4--5-\4--|

End
Tap to rate this tab
 
# A B C D E F G H I J K L M N O P Q R S T U V W X Y Z