Guitaretab - guitar tabs
Song name
# A B C D E F G H I J K L M N O P Q R S T U V W X Y Z

The Kills - Cat Claw tab

Cat Claw

The Kills

Tabbed by Benny Fury

Tuning: B F# B E G# C# Thatís drop B tuning.. very low.

INTRO

e------------------|
B------------------|
G------------------|
D--15--13--12--7---|X How ever many
A--15--13--12--7---|
E--15--13--12--7---|

Pre-chorus:
e-----------------|
B-----------------|
G-----------------|
D-0-5-5-5-5-5-5-5-|
A-0-5-5-5-5-5-5-5-|
E-0-5-5-5-5-5-5-5-|

Chorus:
e-----------------------|
B-----------------------|
G-----------------------|
D-----------------------|  X3
A-------------10-7p0----|
E-0-0-0-0-0-0-------7-0-|


e-----------------|
B-----------------|
G-----------------|
D-3-3-3-3-3-3-3-3-|
A-3-3-3-3-3-3-3-3-|
E-3-3-3-3-3-3-3-3-|

e-----------------------|
B-----------------------|
G-----------------------|
D-----------------------|  X3
A-------------10-7p0----|
E-0-0-0-0-0-0-------7-0-|

e-----------------|
B-----------------|
G-----------------|
D-3-3-3-3-3-3-3-3-|
A-3-3-3-3-3-3-3-3-|
E-3-3-3-3-3-3-3-3-|

e-----------------------|
B-----------------------|
G-----------------------|
D-----------------------|  X3
A-------------10-7p0----|
E-0-0-0-0-0-0-------7-0-|

e-----------------|
B-----------------|
G-----------------|
D-3-3-3-3-5-5-5-5-|
A-3-3-3-3-5-5-5-5-|
E-3-3-3-3-5-5-5-5-|

e-----------------------|
B-----------------------|
G-----------------------|
D-----------------------|  X3
A-------------10-7p0----|
E-0-0-0-0-0-0-------7-0-|

e-----------------|
B-----------------|
G-----------------|
D-3-3-3-3-3-3-3-3-|
A-3-3-3-3-3-3-3-3-|
E-3-3-3-3-3-3-3-3-|

VERSE

e------------------|
B------------------|
G------------------|
D--15--13--12--7---|X How ever many.
A--15--13--12--7---|
E--15--13--12--7ó--|


Pre-chorus:
e-----------------|
B-----------------|
G-----------------|
D-0-5-5-5-5-5-5-5-|
A-0-5-5-5-5-5-5-5-|
E-0-5-5-5-5-5-5-5-|

e-----------------------|
B-----------------------|
G-----------------------|
D-----------------------|  X3
A-------------10-7p0----|
E-0-0-0-0-0-0-------7-0-|

e-----------------|
B-----------------|
G-----------------|
D-3-3-3-3-5-5-5-5-|
A-3-3-3-3-5-5-5-5-|
E-3-3-3-3-5-5-5-5-|

e-----------------------|
B-----------------------|
G-----------------------|
D-----------------------|  X3
A-------------10-7p0----|
E-0-0-0-0-0-0-------7-0-|

e-----------------|
B-----------------|
G-----------------|
D-3-3-3-3-5-5-5-5-|
A-3-3-3-3-5-5-5-5-|
E-3-3-3-3-5-5-5-5-|

e-----------------------|
B-----------------------|
G-----------------------|
D-----------------------|  X3
A-------------10-7p0----|
E-0-0-0-0-0-0-------7-0-|

e-----------------|
B-----------------|
G-----------------|
D-5-5-5-5-3-3-3-3-|
A-5-5-5-5-3-3-3-3-|
E-5-5-5-5-3-3-3-3-|


e-----------------------|
B-----------------------|
G-----------------------|
D-----------------------|  X3
A-------------10-7p0----|
E-0-0-0-0-0-0-------7-0-|
[ Tab from: http://www.guitaretab.com/t/the-kills/47972.html ]
e-----------------|
B-----------------|
G-----------------|
D-3-3-3-3-3-3-3-3-|
A-3-3-3-3-3-3-3-3-|
E-3-3-3-3-3-3-3-3-|

Verse

e-----------------|
B-----------------|
G-----------------|
D--15--13--12--7--|
A--15--13--12--7--|
E--15--13--12--7ó-|


Pre-chorus:
e-----------------|
B-----------------|
G-----------------|
D-0-5-5-5-5-5-5-5-|
A-0-5-5-5-5-5-5-5-|
E-0-5-5-5-5-5-5-5-|

e-----------------------|
B-----------------------|
G-----------------------|
D-----------------------|  X3
A-------------10-7p0----|
E-0-0-0-0-0-0-------7-0-|

e-----------------|
B-----------------|
G-----------------|
D-3-3-3-3-5-5-5-5-|
A-3-3-3-3-5-5-5-5-|
E-3-3-3-3-5-5-5-5-|

e-----------------------|
B-----------------------|
G-----------------------|
D-----------------------|  X3
A-------------10-7p0----|
E-0-0-0-0-0-0-------7-0-|

e-----------------|
B-----------------|
G-----------------|
D-3-3-3-3-5-5-5-5-|
A-3-3-3-3-5-5-5-5-|
E-3-3-3-3-5-5-5-5-|


e-----------------------|
B-----------------------|
G-----------------------|
D-----------------------|  X3
A-------------10-7p0----|
E-0-0-0-0-0-0-------7-0-|

e-----------------|
B-----------------|
G-----------------|
D-5-5-5-5-3-3-3-3-|
A-5-5-5-5-3-3-3-3-|
E-5-5-5-5-3-3-3-3-|

e-----------------------|
B-----------------------|
G-----------------------|
D-----------------------|  X3
A-------------10-7p0----|
E-0-0-0-0-0-0-------7-0-|

e-----------------|
B-----------------|
G-----------------|
D-3-3-3-3-5-5-5-5-|
A-3-3-3-3-5-5-5-5-|
E-3-3-3-3-5-5-5-5-|


Breakdown.

Virtually impossible to tab, quite fun to sort of play though, just hit the strings when 
are fretted around the third fret and slide up the neck really quickly. Repeat.

Final Chorus

e-----------------------|
B-----------------------|
G-----------------------|
D-----------------------|  X3
A-------------10-7p0----|
E-0-0-0-0-0-0-------7-0-|

e-----------------|
B-----------------|
G-----------------|
D-3-3-3-3-5-5-5-5-|
A-3-3-3-3-5-5-5-5-|
E-3-3-3-3-5-5-5-5-|

e-----------------------|
B-----------------------|
G-----------------------|
D-----------------------|  X3
A-------------10-7p0----|
E-0-0-0-0-0-0-------7-0-|

e-----------------|
B-----------------|
G-----------------|
D-3-3-3-3-5-5-5-5-|
A-3-3-3-3-5-5-5-5-|
E-3-3-3-3-5-5-5-5-|

e-----------------------|
B-----------------------|
G-----------------------|
D-----------------------|  X3
A-------------10-7p0----|
E-0-0-0-0-0-0-------7-0-|

e-----------------|
B-----------------|
G-----------------|
D-5-5-5-5-3-3-3-3-|
A-5-5-5-5-3-3-3-3-|
E-5-5-5-5-3-3-3-3-|


e-----------------------|
B-----------------------|
G-----------------------|
D-----------------------|  X3
A-------------10-7p0----|
E-0-0-0-0-0-0-------7-0-|

e-----------------|
B-----------------|
G-----------------|
D-3-3-3-3-3-3-3-3-|
A-3-3-3-3-3-3-3-3-|
E-3-3-3-3-3-3-3-3-|

Thatís it. If you watch live videoís it looks pretty close to what Jamie plays.. Iíve 
Kissy Kissy sussed as well, just need to find the time to tab that out.
Related for Cat Claw tab