Song name
# A B C D E F G H I J K L M N O P Q R S T U V W X Y Z

The King Blues - I Want You chords

Highlighted       Show chord diagrams
Verse/Intro:

   G                     G
|-----------3-3-3-5-5-3-----------3-3-3-5-5-3-----|
|-------------------------------------------------|
|-------------------------------------------------|
|--5--5--5---------------5--5--5------------------|
|--5--5--5---------------5--5--5------------------|
|--3--3--3---------------3--3--3------------------|


   C                     D
|-----------3-3-3-5-5-3-----------2-2-2-3-3-2-----|
|-------------------------------------------------|
|--5--5--5---------------7--7--7------------------|
|--5--5--5---------------7--7--7------------------|
|--3--3--3---------------5--5--5------------------|
|-------------------------------------------------|


Chorus:

       G                 Em
I want you. Yeah, I want you
   
      C                         D
With everything I am, now I want you

       G                 Em
I want you. Yeah, I want you
   
          C                                D
I'm gonna shout it out for all, that I want you

        G   G   G
I want you


Layout:

Intro
Verse 1
Chorus
Verse 2
Chorus
Verse 3
Chorus
Tap to rate this tab
 
# A B C D E F G H I J K L M N O P Q R S T U V W X Y Z