Song name
# A B C D E F G H I J K L M N O P Q R S T U V W X Y Z

The Last Shadow Puppets - My Mistakes Were Made For You tab

-------------------------------------------------------------------------------
	My Mistakes Were Made For You - The Last Shadow Puppets
-------------------------------------------------------------------------------
Tabbed by: Simon
Email:
Key: G
Tuning:Standard
  main riff                        F  F# Gm
e|---------------------------------1~-----3~--------------------------------|
B|------------------------4~-3~----1~--2--3~--------------------------------|
G|--------3-2~---------5-----------2~--3--3~--------------------------------|
D|------5------------5-------------3~--4--5~--------------------------------|
A|----5----------1/3--------------------------------------------------------|
E|1/3-----------------------------------------------------------------------|

e|-------------------------------1~---2~----3~---2~---3~---2~---------------|
B|----------------------4-3~-----1~---3~----4~---3~---4~---3~---------------|
G|--------3-2~--------5------5~--2~---2~----5~---2~---5~---2~---------------|
D|------5-----------5------------3~---0~----5~---0~---5~---0~---------------|
A|----5---------1/3-------------------------3~--------3~---------1~-0~------|
E|1/3-----------------------------------------------------------------------|
 Then palm Muted play.....
e|--------------------------------------------------------------------------|
B|--------------------------------------------------------------------------|
G|--------------------------------------------------------------------------|
D|------------------------------------------------------------------------ -|
A|----xx5--x3-x1--------xx5--x3-x1------------------------------------------|
E|1/3----------------1/3----------------------------------------------------|
Solo
e|----------------------------------------------------5~--------------------|
B|----------------------------------------------------5~--------------------|
G|----------------------------------------------------5~--------------------|
D|----------------------------------------------------7~--------------------|
A|-------------------7--5--3--2----7--5--3--2-------------------------------|
E|1/8---5---5/8\5--5------------5--------------3--5-------------------------|
then it goes into the key of A so move it all up two frets!

Intro: Gm
Verse: Gm,Cm,F,Gm X 4
On 4th time finish with D instead Gm... then
D,Cm,D,Cm,D.
repeat all that the back to Gm for 2 Bars then...
Gm, C, Am, G, Am.for the solo bit (same but in the key of A)



| /  slide up
| \  slide down
| h  hammer-on
| p  pull-off
| ~  vibrato
| +  harmonic
| x  Mute note
===============================================================================
Tap to rate this tab
# A B C D E F G H I J K L M N O P Q R S T U V W X Y Z