Song name
# A B C D E F G H I J K L M N O P Q R S T U V W X Y Z

The Last Shadow Puppets - The Meeting Place tab

The Last Shadow Puppets - The Meeting Place

tune - standard

intro

-8---5---8---7--5-4-3--3--0-3-4-5--0-----3-----------------|
--------------------------------------3--------------------|
-----------------------------------------------------------|
-----------------------------------------------------------|
-----------------------------------------------------------|
-----------------------------------------------------------|

verse

  C     Am   Dm   G
--0-----0----1----3---------------------|
--1-----1----3----3---------------------|
--0-----2----2----4---------------------|
--2-----2----0----5---------------------|
--3-----0----0----5---------------------|
--0-----0----0----3---------------------|

C
The Colder the night gets
Am
The further she strays
Dm
And he doesn't like it
G
Being this way


Chorus

DM          G
I'm sorry I met you darling

DM          G
I'm sorry I met you

Am
As she turned into the night
Tap to rate this tab
# A B C D E F G H I J K L M N O P Q R S T U V W X Y Z