Song name
# A B C D E F G H I J K L M N O P Q R S T U V W X Y Z

The Last Shadow Puppets - Paris Summer tab

Paris Summer Cover- The Last Shadow Puppets

Cover of Nancy Sinatra the Last Shadow Puppets did on their tour, including BBC Electric
The tab isn’t perfect but it gives u an idea. The chords are definitely correct. Any
email me: joetp_10@msn.com

Verse Chords

Am                                                              Dm
Walking down some cobbled street..etc.
Em                                  Am
We lay and let our hearts take wings and fly across the Seine…..etc.


The Main Riff that is played between the Am and Dm chords- and straight after the chorus..
|-----------------------|
|-----------------------|
|-----------------------|
|-----------------------|
|---------5-----------5-|
|--5-7-8----8-7-5-------|

The Riff played During the Em  Am progression (after Am)

|---------------|
|---------------|
|---------------|
|---------------|
|--5--7--5------|
|-----------8-7-|

Chorus Chords
Am     Dm              Am
Oh    Oh  the Paris Summer

Chorus Riff
Am
|----------------|
|----------------|
|----------------|
|----------------|
|----------------|
|--5-5-5-7-8-8---|

Dm			Am
|---------------------------------------|
|---------------------------------------|
|---------------------------------------|
|---------------------------------------|
|--5-5-5-7-8-8-8---10-8-8-7----8-8-8--7-|
|---------------------------------------|

Thats pretty much it. Just repeat for different parts of the song. Hope you like it. 
by Jparkes.
Tap to rate this tab
# A B C D E F G H I J K L M N O P Q R S T U V W X Y Z