Song name
# A B C D E F G H I J K L M N O P Q R S T U V W X Y Z

The Last Shadow Puppets - Standing Next To Me tab

Help us improve GuitareTab! Take a short survey!
Song: Standing Next To Me
Artist: The Last Shadow Puppets

This is my interpretation of the guitar solo, I used the live version that
is on their website (www.theageoftheunderstatement.com) for this because
it's easier to follow without the strings. I believe the solo on the album
has a different ending but I haven't tried to figure that one out yet but
I'm sure its quite similar. It's pretty easy once you figure the timing out
and its a good song so enjoy!


e|-5------------------------------------------------------|
B|-6------------------------------------------------------|
G|-7------------------------------------------------------|
D|-7----7--9--10--9----9--10--12--14--9-9-9--12--9-9-9----|
A|-5------------------------------------------------------|
E|--------------------------------------------------------|


e|------------------------------------------------------------------------|
B|------------------------------------------------------------------------|
G|---------------------------------9--7------------------9-7--------------|
D|-14--9-9-9--12--14-12-10------7----------7----9--10--9--------7--9--10--|
A|---------------------------10---------10-------------------10-----------|
E|------------------------------------------------------------------------|


e|---------------------------------------------------------5------|
B|---------------------------------------------------------5------|
G|---------------------------------------------------------5------|
D|---------------------12--14--12--12-12-12-12--9--9-9-7---7------|
A|-14--14-14-14-14-----------------------------------------7------|
E|---------------------------------------------------------5------|


Cheers,
Jeroen van Spier
Related for Standing Next To Me tab