Song name
# A B C D E F G H I J K L M N O P Q R S T U V W X Y Z

The Letter Black - Moving On tab

The Letter Black - Moving On 
Drop C# tuning
Album - Hanging On By A Thread
Created By Daniel Tully & Andrew Penner
Palm Mute-......


Intro:

C#|-9-4-4-6-9-4-4-6--1-11-10-9-10-1-4-6-9-10-1-11-10-9-10-9-1-|
G#|-9-4-6-6-9-4-6-6--1-11-10-9-10-1-4-6-9-10-1-11-10-9-10-9-1-|
C#|-9-4-6-6-9-4-6-6--1-11-10-9-10-1-4-6-9-10-1-11-10-9-10-9-1-|
F#|................-------------------------------------------|
A#|-----------------------------------------------------------|
D#|-----------------------------------------------------------|

verse(s) 1&2                                                                     

C#|-1-4-9-6-4-1-4-9-1-4-9-6-4-1-4-6-9-11--------------------|           
G#|-1-4-9-6-4-1-4-9-1-4-9-6-4-1-4-6-9-11--------------------|            
C#|-1-4-9-6-4-1-4-9-1-4-9-6-4-1-4-6-9-11--------------------|            
F#|................-----------------------------------------|          
A#|---------------------------------------------------------|         
D#|---------------------------------------------------------|            


Chorus 1&2

C#|-7-9-4-4-6-9-4-4-6-1-4-9-11-6-9--6-4-|
G#|-7-9-4-6-6-9-4-6-6-1-4-9-11-6-11-8-6-|
C#|-7-9-4-6-6-9-4-6-6-1-4-9-11-6-11-8-6-|
F#|................---------------------|
A#|-------------------------------------|
D#|-------------------------------------|

Repeat Intro
Repeat Verse
Repeat Chorus

Break

C#|-1-9--8--9--7-12-11-9--11-9--8--7-11-|
G#|-1-11-10-11-9-14-13-11-13-11-10-9-13-|
C#|-1-11-10-11-9-14-13-11-13-11-10-9-13-|
F#|-------------------------------------|
A#|-------------------------------------|
D#|-------------------------------------|

Bridge

C#|--9-8--6--9-6-|
G#|-11-10-8-11-8-|
C#|-11-10-8-11-8-|
F#|--------------|
A#|--------------|
D#|--------------|

Repeat Intro

Outro

C#|-1-4-11-6-9-9--6-4-1-4-11-6-1-4-11-6-9-9--6-4-9--6-4-|
G#|-1-4-11-6-9-11-6-4-1-4-11-6-1-4-11-6-9-11-6-4-11-8-4-|
C#|-1-4-11-6-9-11-6-4-1-4-11-6-1-4-11-6-9-11-6-4-11-8-4-|
F#|-----------------------------------------------------|
A#|-----------------------------------------------------|
D#|-----------------------------------------------------|

Repeat Intro

The End!
Tap to rate this tab
 
# A B C D E F G H I J K L M N O P Q R S T U V W X Y Z