Song name
# A B C D E F G H I J K L M N O P Q R S T U V W X Y Z

The Living End - Till The End tab

'TILL THE END

/ = slide up
\ = slide down
h = hammer on
p = pull off
b = half bend
^ =bend one fret
^^ = bend 2 frets
v = release bend
pm = palm mute
x = dead note


5ironaudiorage
BROCK ANDERSON


Intro:

e----------------------------------------------------------------------------|
b--------------------4-----4-----4---4-----4-----4---4-----4-----4---4-4-4---|
g--------------------4-----4-----4---4-----4-----4---4-----4-----4---4-4-4---|
d--------------------4-4-4-4-4-4-4-4-4-4-4-4-4-4-4-4-4-4-4-4-4-4-4-4-4-4-4---|
a--7~----------------2-2-2-2-2-2-2-2-2-2-2-2-2-2-2-2-2-2-2-2-2-2-2-2-2-2-2---|
e----------------------------------------------------------------------------|


e----------------------------------------------------------------------------|
b----------------------------------------------------------------------------|
g--9---11--12---14~------9---11--12----9----11----12-12-12-12-12-12-12-12----|
d--x---x---x----x--------x---x---x----10-10-10-10-10-10-10-10-10-10-10-10----|
a--7---9---10---12~------7---9---10---10-10-10-10-10-10-10-10-10-10-10-10----|
e--0-0-0-0-0--0-0----0-0-0-0-0-0-0-----8--8--8--8--8--8--8--8--8--8--8--8----|


e----------------------------------------------------------------------------|
b--5---7---8---10~-----5---7---8---------------------------------------------|
g--x---x---x---x-------x---x---x-----9----11----12-12-12-12-12-12-12-12-12---|
d--2---4---5---7~------2---4---5----10-10-10-10-10-10-10-10-10-10-10-10-10---|
a--0-0-0-0-0-0-0---0-0-0-0-0-0-0----10-10-10-10-10-10-10-10-10-10-10-10-10---|
e------------------------------------8--8--8--8--8--8--8--8--8--8--8--8--8---|


e-----------------------------------------------------------------|
b--4-----4-----4---4-----4-----4---4-----4-----4---4-----4-----4--|
g--4-----4-----4---4-----4-----4---4-----4-----4---4-----4-----4--|
d--4-4-4-4-4-4-4-4-4-4-4-4-4-4-4-4-4-4-4-4-4-4-4-4-4-4-4-4-4-4-4--|
a--2-2-2-2-2-2-2-2-2-2-2-2-2-2-2-2-2-2-2-2-2-2-2-2-2-2-2-2-2-2-2--|
e-----------------------------------------------------------------|


e-----------------------------|
b-----------------------------|
g--9-----9-----9-----9--------|
d--9--9--9--9--9--9--9--9\----|
a--7--9--7--9--7--9--7--9\----|
e--0--7--0--7--0--7--0--7\----|


e------------------------------------------------------------------|
b------------------------------------------------------------------|
g------------------------------------------------------------------|
d------------------------------------------------------------------|
a----7---7---7---7---7---7---7---7---7---7---7---7---7---7---7---7-|
e--0---0---0---0---0---0---0---0---0---0---0---0---0---0---0---0---|
   pm...........................................


Verse
e-------------------------------------------------------------------|
b-------------------------------------------------------------------|
g----4---4---4---4---4---4---4---4----------------------------------|
d--2-------2-------2-------2----------4---4---4---4---4---4---4---4-|
a------2-------2-------2-------2----2-------2-------2-------2-------|
e---------------------------------------2-------2-------2-------2---|
   pm..............................................................


e-------------------------------------------------------------------|
b-------------------------------------------------------------------|
g-------------------------------------------------------------------|
d----2---2---2---2---2---2---2---2----4---4---4---4-4-4-4-4-4-4--1--| All
a--0-------0-------0-------0--------2-------2-------2-2-3-3-2-2-----|   x2
e------0-------0-------0-------0--------2-------2-------------------|
   pm..............................................


e-------------------------------------------------------------------|
b-------------------------------------------------------------------|
g-------------------------------------------------------------------|
d----5---5---5---5---5---5---5---7----9---9---9---9---9---9---9---9-|
a--3-------3-------3-------3---5----7-------7-------7-------7-------|
e------3-------3-------3----------------7-------7-------7-------7---|
   pm.....................          ...............................


e----------------------------------|
b----------------------------------|
g----------------------------------|
d----5---5---5---5---5---5---5---5-|
a--3-------3-------3-------3-------|
e------3-------3-------3-------3---|
   pm.............................

Pre Chorus:

e----------------------------------------------------------------------------|
b--1----4----5----7----4-----4-----4---4-----4-----4---4-----4-----4---4-4---|
g--2----4----5----7----4-----4-----4---4-----4-----4---4-----4-----4---4-4---|
d--2----4----5----7----4-4-4-4-4-4-4-4-4-4-4-4-4-4-4-4-4-4-4-4-4-4-4-4-4-4---|
a--0----0----0----0----2-2-2-2-2-2-2-2-3-3-3-3-3-3-3-3-2-2-2-2-2-2-2-2-2-2---|
e----------------------------------------------------------------------------|

Chorus:

e----------------------------------------------------------------------------|
b----------------------------------------------------------------------------|
g--9---11--12---14~------9---11--12----9----11----12-12-12-12-12-12-12-12----|
d--x---x---x----x--------x---x---x----10-10-10-10-10-10-10-10-10-10-10-10----|
a--7---9---10---12~------7---9---10---10-10-10-10-10-10-10-10-10-10-10-10----|
e--0-0-0-0-0-0--0----0-0-0-0-0-0-0-----8--8--8--8--8--8--8--8--8--8--8--8----|


e----------------------------------------------------------------------------|
b--5---7---8---10~-----5---7---8---------------------------------------------|
g--x---x---x---x-------x---x---x-----9----11----12-12-12-12-12-12-12-12-12---|
d--2---4---5---7~------2---4---5----10-10-10-10-10-10-10-10-10-10-10-10-10---|
a--0-0-0-0-0-0-0---0-0-0-0-0-0-0----10-10-10-10-10-10-10-10-10-10-10-10-10---|
e------------------------------------8--8--8--8--8--8--8--8--8--8--8--8--8---|

Post Chorus:

e-----------------------------------------------------------------|
b--4-----4-----4---4-----4-----4---4-----4-----4---4-----4-----4--|
g--4-----4-----4---4-----4-----4---4-----4-----4---4-----4-----4--|
d--4-4-4-4-4-4-4-4-4-4-4-4-4-4-4-4-4-4-4-4-4-4-4-4-4-4-4-4-4-4-4--|
a--2-2-2-2-2-2-2-2-2-2-2-2-2-2-2-2-2-2-2-2-2-2-2-2-2-2-2-2-2-2-2--|
e-----------------------------------------------------------------|


e-----------------------------|
b-----------------------------|
g--9-----9-----9-----9--------|
d--9--9--9--9--9--9--9--9\----|
a--7--9--7--9--7--9--7--9\----|
e--0--7--0--7--0--7--0--7\----|


e------------------------------------------------------------------|
b------------------------------------------------------------------|
g------------------------------------------------------------------|
d------------------------------------------------------------------|
a----7---7---7---7---7---7---7---7---7---7---7---7---7---7---7---7-|
e--0---0---0---0---0---0---0---0---0---0---0---0---0---0---0---0---|
   pm...........................................

Verse

Pre Chorus

Chorus


Pre-Solo:

e-------------------------------------|
b-------------------------------------|
g--9-9-9-9-9-9-9-9-9-9-9-9-9-9b-9b-9b-|
d--x-x-x-x-x-x-x-x-x-x-x-x-x-x--x--x--|
a--7-7-7-7-7-7-7-7-7-7-7-7-7-7--7--7--|
e-------------------------------------|

Solo: There's at least 2 guitars in this lol probably more.
      This is the best I can come up with

Guitar 1
e----------------------------------------------------------|
b----------------------------------------------------------|
g----4/7-10-9~---4/7-10-9~----9~--8--11-9------------------|
d----x---x--x----x---x--x-----x---x--x--x--9^v-7-9p7-------| x2
a----2/5-8--7~---2/5-8--7~----7~--6--9--7------------10-9--|
e--0-------------------------------------------------------|

Guitar 2
e------------------------------------------7^v-5-7p5-------|
b----------------------------------------------------8-7---|
g--4---2-5-4~-----2-5-4~------4~--2-/5-4~------------------|
d----4----------4------------------------------------------| x2
a----------------------------------------------------------|
e----------------------------------------------------------|

Guitar 1
e------------------------------------|
b------------------------------------|
g------------------------------------|
d----0-5-8-7~--x-x-x-10-9~--x-12-10--| x2
a--0---------------------------------|
e------------------------------------|

Guitar 2
e------0-3\2~--x-x-x-5\3~--x-7\5~----|
b--x-0---5\3~--x-x-x-7\5---x-8\7~----|
g------------------------------------|
d------------------------------------| x2
a------------------------------------|
e------------------------------------|

Guitar 1
e----------------------------------------------------------|
b----------------------------------------------------------|
g----4/7-10-9~---4/7-10-9~----9~--8--11-9------------------|
d----x---x--x----x---x--x-----x---x--x--x--9^v-7-9p7-------|
a----2/5-8--7~---2/5-8--7~----7~--6--9--7------------10-9--|
e--0-------------------------------------------------------|

Guitar 2
e------------------------------------------7^v-5-7p5-------|
b----------------------------------------------------8-7---|
g--4---2-5-4~-----2-5-4~------4~--2-/5-4~------------------|
d----4----------4------------------------------------------|
a----------------------------------------------------------|
e----------------------------------------------------------|

Guitar 1
e--------------------------------|----------------------------0--|
b--------------------------------|----------------------------0--|
g--4-----5-4~--4-----5-4~--------|--4-----5-4~----------------0--|
d--x-4-5-x-x---x-4-5-x-x---(x3)--|--x-4-5-x-x---9--7--5~--4~--2--|
a--2-x-x-3-2~--2-x-x-3-2~--------|--2-x-x-3-2~--x--x--x---x---2--|
e----2-3---------2-3-------------|----2-3-------7--5--3~--2~--0--|

Guitar 2
e--------------------------------|-------------------------------|
b--4-----5-4~--4-----5-4~--------|--4-----5-4~--4--5--7^--7~--5--|
g----2-4---------2-4-------------|----2-4------------------------|
d--------------------------(x3)--|-------------------------------|
a--------------------------------|-------------------------------|
e--------------------------------|-------------------------------|


Post-Solo: Just bass at the start,
           then guitar and drums kick in

e--------------------------------------------------------------|
b--------------------------------------------------------------|
g--------------------------------------------------------------|
d--2-------2-------2-------2-------2-------2-------------------|
a------2-------2-------2-------2-------2-------2---------------|
e----0---0---0---0---0---0---0---0---0---0---0---0--pickslide--|
   pm.............................................

Chorus


Outro:

e-----------------------------------------------------------------|
b--4-----4-----4---4-----4-----4---4-----4-----4---4-----4-----4--|
g--4-----4-----4---4-----4-----4---4-----4-----4---4-----4-----4--|
d--4-4-4-4-4-4-4-4-4-4-4-4-4-4-4-4-4-4-4-4-4-4-4-4-4-4-4-4-4-4-4--|
a--2-2-2-2-2-2-2-2-2-2-2-2-2-2-2-2-2-2-2-2-2-2-2-2-2-2-2-2-2-2-2--|
e-----------------------------------------------------------------|


e------------------------------------------|
b------------------------------------------|
g--9-----9-----9-----9-----9-----9-----9\--|
d--9--9--9--9--9--9--9--9--9--9--9--9--9\--|
a--7--9--7--9--7--9--7--9--7--9--7--9--7\--|
e--0--7--0--7--0--7--0--7--0--7--0--7--0---|
Tap to rate this tab
# A B C D E F G H I J K L M N O P Q R S T U V W X Y Z