Song name
# A B C D E F G H I J K L M N O P Q R S T U V W X Y Z

The Low Life - Green Shirt tab

Get back together please... let the tunes live on

Standard tuning

Green Shirt

Intro/Verse (acoustic) Normal=F#, A, D, bm
e------------------------------------------------|
b--7----10---------------------------------------|
g--6----9----7----5------------------------------|
d--4----7----7----5------------------------------|
a------------5----3------------------------------|
E------------------------------------------------|

Chorus intro
e-------5----------------------------------------|
b---7---5----------------------------------------|
g---7---6---7---4--------------------------------|
d---5---7---7---4--------------------------------|
a---5---7---5---2--------------------------------|
E-------5----------------------------------------|

Chorus
e-------5---------------------------------------|
b---7---5---------------------------------------|
g---7---6---------------------------------------|
d---5---7---------------------------------------|
a---5---7---------------------------------------|
E-------5---------------------------------------|

It hurts when I say i do not care
e-----------5---4------------------------------------|
b-------3---5---5------------------------------------|
g---7---4---6---6------------------------------------|
d---7---4---7---6------------------------------------|
a---5---2---7---4------------------------------------|
E-----------5---4------------------------------------|

Age, never gonna waste it...: f#, a, d, bm
Tap to rate this tab
 
# A B C D E F G H I J K L M N O P Q R S T U V W X Y Z