Song name
# A B C D E F G H I J K L M N O P Q R S T U V W X Y Z

The Low Life - Fiona chords

Highlighted       Show chord diagrams
Although this band has broken up and the singer/writer has passed away, their music will 
always live on.


 These are all of the chords used in this song.....

   C#maj     Ab       D#dim     Fm      D#maj   Fmin

e---4---------4---------6--------1--------6-------8------------|
B---6---------4---------6--------1--------8-------9------------|
G---6---------5---------6--------1--------8------10------------|
D---6---------6---------8--------3--------8------10------------|
A---4---------6---------6--------3--------6-------8------------|
E---x---------4---------x--------1--------x-------x------------|




INTRO

   C#maj    Ab         D#dim    Fm

e---4--4----4---4-------6--6----1----1-------------------|
B---6--6----4-----4-----6--6----1------1-----------------|
G---6--6----5-------5---6--6----1--------1---------------|
D---6--6----6-----------8--8----3------------------------|
A---4--4----6-----------6--6----3------------------------|
E---x--x----4-----------x--x----1------------------------|


just use these chords thru the verse up until he sings "fiona" and double the time
measurement with the same chords


the "i love you so, but you act just like a ho" part is a little different....

     C#maj     D#maj    Fmin

e---4----4----6---6-----8----8------8---6----4---6------------|
B---6----6----8---8-----9----9------9---8----6---8------------|
G---6----6----8---8----10---10-----10---8----6---8------------|
D---6----6----8---8----10---10-----10---8----6---8------------|
A---4----4----6---6-----8----8------8---6----4---6------------|
E---x----x----x---x-----x----x------x---x----x---x------------|


e---4----4----6---6------1------------------------|
B---6----6----8---8------1------------------------|
G---6----6----8---8------1------------------------|
D---6----6----8---8------3------------------------|
A---4----4----6---6------3------------------------|
E---x----x----x---x------1------------------------|


CHORDS w/Lyrics


C#maj               Ab                  D#dim        Fm
    Be good to yourself, cause you were never good to me

C# maj              Ab            D#dim           Fm
     I know what I know, cause I read it in your diary

C#maj         Ab                 D#dim                 Fm
      So stop shaking your knees, start nodding your head

C#maj              Ab      D#dim         Fm
     Cause I said forever, forever's what I said

            C#maj              Ab
     Fiiiiiioooooooooooooooooooooona

D#dim                    Fm
      The only woman I will ever love


C#maj               Ab                   D#dim                 Fm
    Know that I'm watching through the windows and behind the door

C#maj               Ab              D#dim        Fm
     I'll be staring down at you every time you snore

C#maj                Ab          D#dim         Fm
     You know I'm not afraid to wind up       dead

C#maj                Ab          D#dim       Fm
     Cause I said forever Forever's what I said

            C#maj             Ab
     Fiiiiiioooooooooooooooooooooona

D#dim                    Fm
      The only woman I will ever love

C#maj    D#maj  Fmin        Fmin   D#maj   C#maj   D#maj    C#maj
    I   love you so but you act     like    such    a      ho

     D#maj            Fm
You act like such a ho

     D#maj  Fmin  C#maj
You're such a ho
 

anyways, hope everyone's happy that this song is finally tabbed somewhere on the internet

R.I.P. - Evan Bliss
Great Artist and Person
Tap to rate this tab
# A B C D E F G H I J K L M N O P Q R S T U V W X Y Z