Song name
# A B C D E F G H I J K L M N O P Q R S T U V W X Y Z

The Mars Volta - Lvia Lviaquez tab

So the other tab is OK but doesn't quite sound right.  I'm pretty confident in 
this one so here it goes.

h: hammer on
p: pull off
s: slide
^: bend whole step
pm: palm mute

INTRO:
|---------------------|---------|   |--------------------------------------|
|---------------------|---------|   |-----------6-----------------6--------|
|-----3h5p3---3h5p3---|-3h5p3---|   |-5---5-------5p3-5p3---3-5s7---7s5p3--|
|-3-5-------5-------5-|-------5-|x6 |---------------------5--------------5-|
|---------------------|---------|   |--------------------------------------|
|---------------------|---------|   |--------------------------------------|

VERSE (listen for the struming pattern):
|-6-|-8-|-6-|-------5------5-|
|-8-|-7-|-6-|-----4---4----4-|
|-7-|-7-|-7-|---5-------5--5-|
|-5-|---|---|-0------------0-|
|---|---|---|----------------|
|---|---|---|----------------|

PRE CHORUS:                        Gm  Am Bb C  D       After 2nd verse
|-3-----3-5---|-3-----3-----------|-3--5--6--8--10-| r v |-------------|
|---3-------4-|---3-----3-----3---|-3--5--6--8--10-| e e |-------------|
|-----3-------|-----3-----3-5---5-|-3--5--7--9--11-| p r |-------------|
|-------------|-------------------|-5--7--8--10-12-| e s |-------------|
|-------------|-------------------|-5--7--8--10-12-| a e |-------------|
|-------------|-------------------|-3--5--6--8--10-| t   |-pm-10-8-6-5-|

CHORUS (The stumming pattern changes so play around with these cords):

Gm: 3553333 Bb X1333X D X5777X A7dim 54X5XX

Back to it:
|---------------------------------------------------------|---------------|
|-17^-----------------------------------------------------|-----15h18p15--|
|-17^---------15--------15-------15-------17-------15-17^-|-17^-----------| x7
|-------15h17-----15h17----15h17----15h17----15h17--------|---------------|
|---------------------------------------------------------|---------------|
|---------------------------------------------------------|---------------|

|-------------------------------------------------------------------------|
|-------------------------------------------------------------------------|
|-17^-17^-17^-17s15-------------------------------------------------------|
|-------------------17--15-17---------------------------------------------|
|--------------------------------15-15-------15-15-------15-13-15^15-13---|
|-----------------------------15-------15-15-------15-15----------------15|

VERSE

PRE-CHORUS

CHORUS

BRIDGE SOLO

|-15----------------------13----12-------10-------------------------------|
|----12----------------------11----11-10----11-10h11-10h11-10h11-13-9-----|
|-------13-------15-12-11---------------------------------------------9-8-|
|----------12-13----------------------------------------------------------|
|-------------------------------------------------------------------------|
|-------------------------------------------------------------------------|

|-10-17----14-15-------19----------------19----17-21----|
|-------15----------17-------19-20----17----18----------|
|----------------15-------19-------15----------------19-|
|-------------------------------------------------------|
|-------------------------------------------------------|
|-------------------------------------------------------|

FINAL VERSE

Strum the chords from the earlier verses then same build up and break down

For the lead in the outro it's really just a jam you can play around with the G natural 
occasionally throwing a F# in.  You can play this over the earlier choruses too.
Tap to rate this tab
 
# A B C D E F G H I J K L M N O P Q R S T U V W X Y Z