Song name
# A B C D E F G H I J K L M N O P Q R S T U V W X Y Z

The Mint Chicks - If My Arm Was A Mic Stand Would You Hold My Hand tab

Help us improve GuitareTab! Take a short survey!
             Tabbed By EVILOR

Hey, Heres that wicked Mint Chicks Song,
Lets see some bad ass cover in your next High school battle of the Bands! Or whatever.


Heres the guitar line. Its the same as the melody,

|-------------------------------------------------------------|
|---------------------9-9-------------------------7-----------|
|--------9----------------------------------------------------|
|-5-------------7-6-6-----8--5-5-----7------5-4-4----6--------|
|---7-7----9-9-------------------5-5---7-7---------------5----|
|-----------------------------------------------------------5-|


|----------------------------------------------------|
|----------------------------------------------------|
|----------------------------------------------------|
|----7------------6-6-----------5------------4-------|
|-----------5-4-4-----6--5-------------3-2-2----4----|
|-5----7-7-----------------3-3----5-5----------------| repeat repeat!

the random chord thing in between verses is this,

|--9-|
|-10-|
|-10-|
|-11-|
|----|
|----|x5 very fast. (4 semiquavers and a quaver!)

And the solo,
(sorry if its all squished like it looks in my browser, but you can pretty easily
it into Word and expand the margins)

|-------------------------------------7-12-10------------9-11-9----11-9------------|
|-10b12--------10-8-10-8---8-10b12------------12-11-11--------11------11-11--------|
|-------------------------9--------------------------------------------------------|
|----------------------------------------------------------------------------------|
|----------------------------------------------------------------------------------|
|----------------------------------------------------------------------------------|

-------------------------------------|
11--------------9-11-9---------------|
13b15----13b15-------11--------11----|
-------------------------------------|
-------------------------------------|
-------------------------------------|

|-----9-11-9----11-9----8-10-8---------------------------------------------------------------|
|-11---------11------10--------10-10-------10-------10-------13--13-------11-10-------10-----|
|----------------------------------12b14----12b14----12b14--------------------------------9--|
|---------------------------------------------------------------------12-12-------10-10------|
|--------------------------------------------------------------------------------------------|
|--------------------------------------------------------------------------------------------|

Outro!
|----------------------------------------------|
|----------------------------------------------|
|----------------------------------------------|
|------5-4----7-6----9-8-----------------------|
|----------5------7------9---11-11-11-11-11----|
|-3--------------------------------------------|


There you go!


ps. Tabs rock, I learned how to play guitar from tabs.
 Remember to listen to the song as you learn it, play it slowly and then play along.
Pick out any crap parts of the tab and rewrite it!
The best learning experience is to listen and figure out how to play it yourself,
how the song works and how it was written.


Come see the mint chicks- www.themintchicks.com
Related for If My Arm Was A Mic Stand Would You Hold My Hand tab