The Naked And Famous - No Way tab

i'm not sure if this is right, but i'm uploading this just because there is no other 
version right now. feel free to correct any part.

|-----------------------------------------------------------------------|
|-----------------------------------------------------------------------|
|-----------------------------------------------------------------------|
|----0----0----0----0------0----0----0----0------0----0----0----0-------|
|-----------------------------------------------------------------------|
|-3----3----3----3------5----5----5----5------7----7----7----7----------|

----------------------|
----------------------|
----------------------|
----0----0----0----0--|
----------------------|
-7----7----5----5-----|

play this over and over and just before the break (i'm not sure what to call it):
----------------------------|
----------------------------|
----------------------------|
----0--------0---0----------|
-5-----5-5-5---5------------|
----------------------------|
just play these notes. i'm not sure just yet about the rythmics, because i found out how 
to play this song about 10 minutes
before uploading it here.

and as for the break, i think the chords are:
G | A | Bm | Bm A|

hope this helps ;>
Tap to rate this tab
 
# A B C D E F G H I J K L M N O P Q R S T U V W X Y Z