Song name
# A B C D E F G H I J K L M N O P Q R S T U V W X Y Z

The Naked And Famous - All Of This tab

-------------------------------------------------------------------------------
			     All of This - The Naked and Famous
-------------------------------------------------------------------------------
Tabbed by: Telecaster Kid
Email: rossdon.95@googlemail.com

Tuning: Standard (EADGBE)

I've tabbed all two of the guitar parts in this song by The Naked and Famous by ear and 
it all sounds right to me.

First post-chorus
e|--------------------------------------------------------------------------|
B|------------------------------------------------15/-----------------------|
G|-14-14-14-14------------------14-14-14-14---------------------------------|
D|-------------14-14------------------------14-14---------------------------|
A|-------------------12/----------------------------------------------------|
E|--------------------------------------------------------------------------|

Guitar solo
e|-x----------------------------|----------------------------|
B|-x----------------------------|----------------------------|
G|-x----------------------------|----------------------------|
D|---12b14-11-11-9-9-11-11-9-11-|-12b14-11-11-9-9-11-11-9-11-|
A|------------------------------|----------------------------|
E|------------------------------|----------------------------|

e|----------------------------|-------------------------------|
B|----------------------------|-------------------------------|
G|----------------------------|-------------------------------|
D|-12b14-11-11-9-9-11-11-9-11-|-12b14-11-11-9-9-11-11-/14-/16-|
A|----------------------------|-------------------------------|
E|----------------------------|-------------------------------|

e|-------------------------------------|-------------------------------------|
B|-------------------------------------|-------------------------------------|
G|-------------------------------------|-------------------------------------|
D|-16-16b17r16-16b17r16-16b17r16-------|-16-16b17r16-16b17r16-16b17r16-------|
A|-------------------------------14-16-|-------------------------------14-16-|
E|-------------------------------------|-------------------------------------|

e|------------------------|----------------------------------|
B|------------------------|----------------------------------|
G|------------------------|----------------------------------|
D|-16/-11-11/-12-12/-7-7/-|-16/-11-11/-12-11-12-11/-9-7-9-7/-|
A|------------------------|----------------------------------|
E|------------------------|----------------------------------|

Final Chourus
e|-----------------------|-----------------------|
B|-----------------------|-----------------------|
G|-----------------------|-----------------------|
D|-11-11b12-11b12-9----9-|-11-11b12-11b12-9----9-|
A|------------------12---|------------------12---|
E|-----------------------|-----------------------|

e|-------------------------|-------------------------|
B|-14-14b15-14b15-12----12-|-14-14b15-14b15-12----12-|
G|-------------------14----|-------------------14----|
D|-------------------------|-------------------------|
A|-------------------------|-------------------------|
E|-------------------------|-------------------------|



************************************

| /   slide up
| \   slide down
| h   hammer-on
| p   pull-off
| ~   vibrato
| +   harmonic
| x   Mute note
| b   Bend
| pb  Pre-bend
| br  Bend release
| pbr Pre-bend release
| brb Bend release bend

************************************
Tap to rate this tab
 
# A B C D E F G H I J K L M N O P Q R S T U V W X Y Z