Song name
# A B C D E F G H I J K L M N O P Q R S T U V W X Y Z

The National - About Today tab

Help us improve GuitareTab! Take a short survey!
Riff 1
e3-----0-----0-----------0----------------------|
b----1-----1-----1-1---1-----1-1---1-0---0-0---0|
g--2-----2-----2-----2-----2-----2-----0-----0--|
d-----------------------------------------------|
a-----------------------------------------------|
E-----------------------------------------------|

Riff 2
e------------------------0-----------0----------|
b1---1-1---1-1---1-1---1-----0-0---0-----0-0---0|
g--0-----0-----0-----0-----0-----0-----0-----0--|
d-----------------------------------------------|
a-----------------------------------------------|
E-----------------------------------------------|

e0-----3-----1-----0-----------3-----1-----0----|
b----1-----1-----1-----1-0---0-----0-----0-----0|
g--2-----2-----2-----2-----0-----0-----0-----0--|
d-----------------------------------------------|
a-----------------------------------------------|
E-----------------------------------------------|

Related for About Today tab