Guitaretab - guitar tabs
Song name
# A B C D E F G H I J K L M N O P Q R S T U V W X Y Z

The National - Daughters Of The Soho Riots tab

“Daughter of the Soho Riots”
by The National
from the album ‘Alligator’

*CAPO 2nd Fret*

       I have your good clothes in the car
       So cut your hair so no one knows
|-----------------------------------------------------------|
|---------------------0---------------------------0---------|
|--------0------2-------2-----------0------2--------2-------|
|----------0------0-------0-----------0------0--------0-----|
|----2-------2------0-----------2-------2------0------------|
|--3---3----------------------3---3-------------------------|

         I have your dreams and your teeth marks
         And all my fingernails are painted
|----------------------------------------------------------|
|---------------------0----------------------0-------------|
|-------0------2--------2--------0-----2-------2-----------|
|---------2-------0-------0--------2-----0-------0---------|
|----2------2-------2----------2-----2-----2---------------|
|--0-------------------------0-----------------------------|
[ Tab from: http://www.guitaretab.com/t/the-national/88080.html ]
 How can anybody know How they got to be
                              this way
|---------------------------------------------------------------------------|
|----1---1-1-1-------1--1-1-1------------------0-----------------------0----|
|----0---0-0-0-------0--0-0-0-------0-----2------2----------0-----2------2--|
|----2---2-2-2-------x--x-x-x---------0-----0------0----------0-----0------0|
|-3--3---3-3-3--3--2-2--2-2-2----2------2-----0----------2------2-----0-----|
|------------------------------3---3-------------------3---3----------------|

  Break my arms around the one I love
  And be forgiven by the time my lover comes
|----------------------------------------------------------|
|----1---1-1-1-------1--1-1-1-------1--1-1-1---------------|
|----0---0-0-0-------0--0-0-0-------2--2-2-2---------------|
|----2---2-2-2-------x--x-x-x-------2--2-2-2---------------|
|-3--3---3-3-3--3--2-2--2-2-2--2-0--0--0-0-0---------------|
|----------------------------------------------------------|

   Break my arms around my love
|--------------------------------|
|---------------------0----------|
|--------0------2-------2--------|
|----------0------0-------0------|
|----2-------2------0------------|
|--3---3-------------------------|

Notes:
the main riff is the first one which centers around a G chord, nearly always followed by 
second, the Em riff. Sometimes the G chord riff pops up during the chorus as well. 
are the main parts for the song so just mess around and you’ll hear it.

Email questions:
Fixxxer411@yahoo.com
Related for Daughters Of The Soho Riots tab
Advertisement will be closed in 10 seconds