Song name
# A B C D E F G H I J K L M N O P Q R S T U V W X Y Z

The Orwells - Let It Burn tab

-------------------------------------------------------------------------------
			     Let it Burn - The Orwells
-------------------------------------------------------------------------------
Tabbed by: qotsafan1

Tuning: Standard

Only you can prevent forest fires.

Chords:

Em (022000)
G (355433)
C (81010988)

Verse/Chorus are same chords, different rhythm
e|-0---------3-----------8------------8--8-----8--8-------------------------|
B|-0---------3-----------8------------8--8-----8--8-------------------------|
G|-0---------4-----------9------------9--9-----9--9-------------------------|
D|-2---------5----------10-----------10-10----10-10-------------------------|
A|-2---------5----------10-----------10-10----10-10-------------------------|
E|-0---------3-----------8------------8--8-----8--8-------------------------|

Intro Riff
e|--------------------------------------------------------------------------|
B|--------------------------------------------------------------------------|
G|----------9--7------------9--7---------7777-999---------------------------|
D|----------------9---------------9-----------------------------------------|
A|--7-5h7--------------5h7--------------------------------------------------|
E|--------------------------------------------------------------------------|

e|--------------------------------------------------------------------------|
B|-------------------------------------8888-77------------------------------|
G|---------9-7-----------9--7-----------------9-----------------------------|
D|--------------9--------------9--------------------------------------------|
A|--7-5h7----------5h7------------------------------------------------------|
E|--------------------------------------------------------------------------|



Solo

e|--------------------------------------------------------------------------|
B|8-------------------------------------------------------------------------|
G|----7----9----99999b9b9b9b-9p7-777s4-444s2-222p0---0--2b-0-2b-0-2b-0-2b-0-|
D|-------------------------------------------------2------------------------|
A|--------------------------------------------------------------------------|
E|--------------------------------------------------------------------------|

e|--------------------------10---10---10---10-------------------------------|
B|------------8x8--10x8--10b--10b--10b--10b--10p8---------------------------|
G|-7x8---9x8--------------------------------------9-------------------------|
D|--------------------------------------------------------------------------|
A|--------------------------------------------------------------------------|
E|--------------------------------------------------------------------------|

e|----10---10---10---10--10x8-----------------------------------------------|
B|-10b--10b--10b--10b-------------------------------------------------------|
G|--------------------------------------------------------------------------|
D|--------------------------------------------------------------------------|
A|--------------------------------------------------------------------------|
E|--------------------------------------------------------------------------|
Tap to rate this tab
# A B C D E F G H I J K L M N O P Q R S T U V W X Y Z