Guitaretab - guitar tabs
Song name
# A B C D E F G H I J K L M N O P Q R S T U V W X Y Z

The Pack Ad - Wolves And Werewolves tab

e---------------------------------------------------------------------------|
b---------------------------------------------------------------------------|
g------------------------------------------8-10--------------8-10-----------|
d-------------------------------------8/10------8p6-----8/10------8p6-------|
a---------------------------------------------------8-----------------8-----|
e--1--1-1--1--1-1--1--1-1--1--1-1--1------------------1-----------------1---|

e---------------------------------------------------------------------------|
b---------------------------------------------------------------------------|
g-------8-10--------------8-10---------------8-10--------------8-10---------|
d--8/10------8p6-----8/10------8p6------8/10------8p6-----8/10------8p6-----|
a----------------8-----------------8------------------8-----------------8---|
e------------------1-----------------1------------------1-----------------1-|

e---------------------------------------------------------------------------|
b---------------------------------------------------------------------------|
g-------8-10---------------8-10---------------------------------------------|
d--8/10------8p6------8/10------8p6---8-8-8-8-8-8-8-8-6-6-6-6-6-6-6-6-------|
a-----------------8---------------------------------------------------------|
e-------------------1-------------------------------------------------1-----|
[ Tab from: http://www.guitaretab.com/t/the-pack-ad/188450.html ]
e---------------------------------------------------------------------------|
b---------------------------------------------------------------------------|
g-------8-10---------------8-10---------------------------------------------|
d--8/10------8p6------8/10------8p6-8---8-8-8-8-8-8-8-6-6-6-6-6-6-6-6-------|
a-----------------8---------------------------------------------------------|
e-------------------1-------------------------------------------------1-----|

e---------------------------------------------------------------------------|
b---------------------------------------------------------------------------|
g------8-10---------------8-10----------------------------------------------|
d-8/10------8p6------8/10------8p6-10-10-10-10-10-10-10-10-8---8---8---8----|
a----------------8----------------------------------------------------------|
e------------------1-----------------------------------------------------1--|

e---------------------------------------------------------------------------|
b---------------------------------------------------------------------------|
g-------8-10--------------8-10---------------8-10--------------8-10---------|
d--8/10------8p6-----8/10------8p6------8/10------8p6-----8/10------8p6-----|
a----------------8-----------------8------------------8-----------------8---|
e------------------1-----------------1------------------1-------------------|

Chorus:
e---------------------------------------------------------------------------|
b-----------------------------9------------------------------------9--------|
g--10-8----10---------10-8--------------10-8----10---------10-8-------------|
d-------10----6-8-6--------10---6-8-6--------10----6-8-6--------10---6-8-6--|
a---------------------------------------------------------------------------|
e---------------------------------------------------------------------------|

e----------------------------------------|
b----------------------------------------|
g----------------------------------------|
d--8-8-8-8-8-8-8---6-6-6-6-6-6-6-6-------|
a----------------8-----------------8-----|
e----------------------------------------|
Related for Wolves And Werewolves tab
Advertisement will be closed in 10 seconds