Song name
# A B C D E F G H I J K L M N O P Q R S T U V W X Y Z

The Pack Ad - Blackout tab

Intro/Chorus:
e---------------------------------------7h10p7------------------------------|
b---------------------------------------------------------------------------|
g----------------9~p7------------------------------------------7-7----------|
d--9-9-9-7-7-7-9------9---9-9-9-7-7-7-9----------9-9-9-7-7-7-9-7-7----------|
a--------------------------------------------------------------5-5----------|
e---------------------------------------------------------------------------|

Verse:
e--------------------------------------------------------------------|
b--------------------------------------------------------------------|
g--------------------------------------------------------------------|
d--------------------------------------------------------------------|
a--------------------------------------------------------------------|
e--7-7-7-5-5-5-7---7-7-7-5-5-5-7---7-7-7-5-5-5-7---7-7-7-5-5-5-7-----|
Tap to rate this tab
 
# A B C D E F G H I J K L M N O P Q R S T U V W X Y Z