Song name
# A B C D E F G H I J K L M N O P Q R S T U V W X Y Z

The Parlotones - Long Way Home tab

h - hammer on
/ - slide

Full Step Down
Our Youth Is Wasted, Take One x1
D|---------------------------|
A|---------------------------|
F|---------------------------|
C|-2-2-2-2-2-3--2-2-2-2-2-3--|
G|-2-2-2-2-2-3--2-2-2-2-2-3--|
D|-0-0-0-0-0-1--0-0-0-0-0-1--|


My Ego Has Been Bruised x3
D|-------------------------------------------|
A|-------------------------------------------|
F|-------------------------------------------|
C|-2-2-2-3/5--2-2-2-3/6--2-2-2-3/5--2-3-6-5--|
G|-2-2-2-3/5--2-2-2-3/6--2-2-2-3/5--2-3-6-5--|
D|-0-0-0-1/3--0-0-0-1/4--0-0-0-1/3--0-1-4-3--|


I Faced An Army Of Myself and I failed x1
D|-----------------|
A|-----------------|
F|-----------------|
C|-2-3-5--2-3-6-2--|
G|-2-3-5--2-3-6-2--|
D|-0-1-3--0-1-4-0--|


My Good Intentions x4
D|----------------------------------------|
A|----------------------------------------|
F|----------------------------------------|
C|-2-2-2--2h3-2----2-2-2--2h3-2--2-2-6-5--|
G|-2-2-2--2h3-2----2-2-2--2h3-2--2-2-6-5--|
D|-0-0-0--0h1-0----0-0-0--0h1-0--0-0-4-3--|


I'm Taking The Long Way Home From Here x2
D|---------------------------------------------|
A|---------------------------------------------|
F|---------------------------------------------|
C|-2-2-2--2h3-2-2-2-2---2-2-2--2h3-2--2-2-6-5--|
G|-2-2-2--2h3-2-2-2-2---2-2-2--2h3-2--2-2-6-5--|
D|-0-0-0--0h1-0-0-0-0---0-0-0--0h1-0--0-0-4-3--|

Tap to rate this tab
 
# A B C D E F G H I J K L M N O P Q R S T U V W X Y Z