Song name
# A B C D E F G H I J K L M N O P Q R S T U V W X Y Z

The Parlotones - Tiny tab

-----------------------------------------------------------------------------
                             Tiny - The Parlotones
-----------------------------------------------------------------------------
Tabbed by: pietpodlood
E-mail: prossouw79@gmail.com

Tuning: Standard Tuning

  [Guitar 1] - [0:00] - Clean with effect

e|--------------------------------------------------------------------------|
B|---------22-------------------------22------------------------------------|
G|----19-------18-19---18--------19-------18-19---18------------------------|
D|--------------------------------------------------------------------------|
A|--------------------------------------------------------------------------|
E|--------------------------------------------------------------------------|

  [Guitar 2] - [0:24] - Palm mute with Distortion

e|--------------------------------------------------------------------------|
B|--------------------------------------------------------------------------|
G|--------------------------------------------------------------------------|
D|--------------------------------------------------------------------------|
A|------5----5---5------2----2---2--------9-----9--11--12------4----4--5--7-|
E|---7-----7---7-----3-----3---3------10-----10-------------5----5----------|

  [Guitar 1] - [0:30] - Clean sound

e|--------------------------------------------------------------------------|
B|--------------------------------15-14-12-12--10---12---10-----------------|
G|-9---11-9-11-12--12-11--9--7----------------------------------------------|
D|--------------------------------------------------------------------------|
A|--------------------------------------------------------------------------|
E|--------------------------------------------------------------------------|

You'll have to listen to the actual song for the rythm, although I did try to add te
rythm into the tab. It continues with these notes for a while but then later on there's
riffs that I haven't yet figured out, so this is just the basic intro... If you have any 
corrections or constructive comments feel free to email me.

I just did this for fun and because I like this song alot, hope some people can work on
the rest so we can have a 100% correct tab for this amazing song.
Tap to rate this tab
# A B C D E F G H I J K L M N O P Q R S T U V W X Y Z