Song name
# A B C D E F G H I J K L M N O P Q R S T U V W X Y Z

The Pipettes - Dirty Mind tab

Highlighted       Show chord diagrams
Artist: The Pipettes    http://www.thepipettes.co.uk/
Track: Dirty Mind
Album: We Are The Pipettes
Tabber: Woodshed


Intro Riff

e|--------------------------------------------------------------|
B|--------------------------------------------------------------|
G|--------------5---5-------------------------5---5-------------|
D|------5 h 7------------7---5 -----5 h 7--------------7---5 ---|
A|--------------------------------------------------------------|
E|--------------------------------------------------------------|

e|--------------------------------------------------------------|
B|--------------------------------------------------------------|
G|----------------3---3------3---3-------3---3------------------|
D|-----3 h 5------------5-----------5------------5--------------|
A|--------------------------------------------------------------|
E|--------------------------------------------------------------|


n/c
He's got a dirty mind, just don't know what you're gonna find


VERSE 1


c
On her way from the school

    Gm
She saw him, she saw him

c
In a second she knew

     Gm
She wanted him, oh she wanted him

c
There was no trace on him

   Gm
Of filth, grime or dirt

c
An overwhelming urge

   Gm
To smile, laugh and flirt


CHORUS


c                     Bb
There she goes with a twinkle in her eye

F                      Ab
Don't take a genius to understand the reason why

c                     Bb
There she goes with a twinkle in her eye

F                      Ab                         c
Don't take a genius to understand the reason why

Gm
He's got a dirty mind, just don't know what you're gonna find


VERSE 2


c
This girl he thought she was

 Gm
Living in a dream

c
It's just that he was

Gm
Exceptionally clean

c
All the boys that she, that she had known before

Gm
Avoided hygiene

c
Around at his house, you could eat off the floor

Gm
Which was slightly unnerving


CHORUS

c               Bb
Hygeine boy, oh what am I to do

F                 Ab
I feel positively filthy standing next to you

c               Bb
Hygeine boy, oh what am I to do

F                 Ab                               c
I feel positively filthy standing next to you

Bb                                     F                         
He's got a dirty mind, just don't know what you're gonna find


c - Bb - F

VERSE 3

c                        Bb   F
She got to know his mind intimately

c
She was surprised to find

Bb                 F
Something of an anomaly

c
You see this perfect boy

Bb              F
Wasn't quite so pristine

c
He had ideas that would (He had ideas that could)

Bb             F
Make the devil Scream




c                      Bb
Dirty mind, don't know what you're gonna find

F                      Ab
He's got a dirty mind, just don't know what you're gonna find

Repeat to end.
Tap to rate this tab
# A B C D E F G H I J K L M N O P Q R S T U V W X Y Z