Guitaretab - guitar tabs
Song name
# A B C D E F G H I J K L M N O P Q R S T U V W X Y Z

The Pipettes - Sex tab

Highlighted       Show chord diagrams
Artist: The Pipettes    http://www.thepipettes.co.uk/
Track: Sex
Album: We Are The Pipettes
Tabber: Woodshed


INTRO

C - F - G - F

VERSE 1

C
He said we could talk about gossip, 

F             G
We could talk about lies.

C
He said we could talk about rumours,

F               G
We could do whatever I like

C
Then he said letís stop with all the talking, 

F           G
why not try something new?

C
Because thereís no need for any talking,

F              G
In what weíre about to do:


CHORUS

Em               Dm                C
Rest your pretty head, your pretty head.

      Em                  Dm                C
Donít trouble your pretty head, your pretty head.


VERSE 2

C
You know Iím all for conversation

F                    G
Iím really quite a romantic, you know

C
But why not get right to the point

F                         G
Itís not that often weíre left alone

C
No offense but when you get going, 

    F             G
You really can be quite a bore

C
Now please donít take this the wrong way, 

F               G
But my ears are getting sore


CHORUS

Em               Dm                C
Rest your pretty head, your pretty head.

      Em                  Dm                C
Donít trouble your pretty head, your pretty head.

Em               Dm                C
Rest your pretty head, your pretty head.

      Em                  Dm                C
Donít trouble your pretty head, your pretty head.


MIDDLE 8 
[ Tab from: http://www.guitaretab.com/t/the-pipettes/76804.html ]
e|-------------------------|-----------------------------------------|
B|-------------------------|-----------------------------------------|
G|--0---0--0---------------|-----------------------------------------|
D|--------------3--3--2----|----2----------2--2--0--0----------------|
A|-------------------------|-------------------------------------3---|
E|-------------------------|-----------------------------------------|

We spent a winter and a spring,            just listening not talking

e|------------------------------------------------------------------|
B|------------------------------------------------------------------|
G|------------------------------------------------------------------|
D|------------------------0---2-------------------------------------|
A|---0----0--2--3---------------------------------------------------|
E|------------------------------------------------------------------|
    
           Come rain or wind or shine

e|-------------------------|-----------------------------------------|
B|-------------------------|-----------------------------------------|
G|--0---0--0---------------|-----------------------------------------|
D|--------------3--3--2----|----2----------2--2--0--0----------------|
A|-------------------------|-------------------------------------3---|
E|-------------------------|-----------------------------------------|

And no, I never told you that the         conversations in my head 

e|------------------------------------------------------------------|
B|------------------------------------------------------------------|
G|------------------------------------------------------------------|
D|------------------------------------------------------------------|
A|----0---0---0h2--2/3------/10-------------------------------------|
E|------------------------------------------------------------------|

          helped me to pass the time


CHORUS

Em               Dm                C
Rest your pretty head, your pretty head.

      Em                  Dm                C
Donít trouble your pretty head, your pretty head.

Em               Dm                C
Rest your pretty head, your pretty head.

      Em                  Dm                C
Donít trouble your pretty head, your pretty head.
Related for Sex tab