Song name
# A B C D E F G H I J K L M N O P Q R S T U V W X Y Z

The Plot In You - Nothing Leaves This Room tab

Song: Nothing Leaves This Room
Artist: The Plot In You
Album: First Born
Year: 2011



So I was looking up tabs for the new TPIY album, and I only found one for Miscarriage,
Small Face, and The Father's Seed. This is my favorite band right now, and I thought I'd
figure out the rest of the songs that don't have tabs on the internet. My favorite song 
off of the album is Nothing Leaves This Room, so that's the one I'm tabbing first.

NOTE: I think this is just the rhythm guitar part of the song, but I'm not sure. I had
to make the song instrumental in order to really hear the notes. I tabbed this all by
ear, so I know it's not 100% right.

Tabbed by: B.R. Guitarist (Seth)
Email: sethreedrocks@yahoo.com

Tuning: Drop B (B F# B E G# C#)


************************************

| /   slide up
| \   slide down
| h   hammer-on
| p   pull-off
| ~   vibrato
| +   harmonic
| pm   Mute note
| b   Bend
| pb  Pre-bend
| br  Bend release
| pbr Pre-bend release
| brb Bend release bend

************************************



(Intro/Verse 1) x2
e|---------------------------------------------------------------------------|
B|---------------------------------------------------------------------------|
G|--4----------4-------------------------------------------------------------|
D|--4-2pm------4-2pm---------2--------4--------------------------------------|
A|--2-2pm------2-2pm---------2--------4--------------------------------------|
E|----2pm-(x14)--2pm-(x14)---2-(x16)--4-(x16)--------------------------------|

"Stuck, in this empty room..." x2
e|---------------------------------------------------------------------------|
B|---------------------------------------------------------------------------|
G|----------4----------------------------------------------------------------|
D|-2--------4-------4--------------------------------------------------------|
A|-2--------2-(x8)--4--------------------------------------------------------|
E|-2-(x16)----------4-(x8)---------------------------------------------------|

"I tried to show you the man..." x2
e|---------------------------------------------------------------------------|
B|---------------------------------------------------------------------------|
G|--4444---------------------------------------------------------------------|
D|--4444---4444---2222---22222---22222---------------------------------------|
A|--2222---4444---2222---22222---22222---------------------------------------|
E|---------4444---2222---22222---22222---------------------------------------|

"I'm looking on with a new perspective..." x2
e|---------------------------------------------------------------------------|
B|---------------------------------------------------------------------------|
G|-------4444------3334------------------------------------------------------|
D|--2222------4444------2-------4--------------------------------------------|
A|--2222------4444------2-------4--------------------------------------------|
E|--2222------4444------2(x12)--4-(x4)---------------------------------------|

"...broken home in my rearview mirror"
e|---------------------------------------------------------------------------|
B|---------------------------------------------------------------------------|
G|---------------------------------------------------------------------------|
D|--22----22----22~-----22----22----22~--------------------------------------|
A|--22----22----22~-----22----22----22~--------------------------------------|
E|--22----22----22~-----22----22----22~--------------------------------------|

"It's time for me to start over."
e|---------------------------------------------------------------------------|
B|---------------------------------------------------------------------------|
G|---------------------------------------------------------------------------|
D|--4--------2------------------2~-------------------------------------------|
A|--4--------2------------------2~-------------------------------------------|
E|--4-(x16)--2-(x16)---(end on)-2~-------------------------------------------|

(Guitar 2 plays during "And every single chance I get...")

"Why, God..." (strumming is somewhat hard to remember, listen to the song to figure it out)
e|---------------------------------------------------------------------------|
B|---------------------------------------------------------------------------|
G|---------------------------------------------------------------------------|
D|--22------22----22----22----22----2222-------------------------------------|
A|--22------22----22----22----22----2222-------------------------------------|
E|--22------22----22----22----22----2222-------------------------------------|

Replay "I tried to show you the man.."
Replay "I'm looking on with a new perspective."
Replay "...broken home in my rearview mirror."
Replay "It's time for me to start over."
Guitar 2 plays during "Take everything..."

"Take everything,remember me."
e|---------------------------------------------------------------------------|
B|---------------------------------------------------------------------------|
G|---------------------------444--------333--------334---------11-(x3)-------|
D|--2--------4--------2----------4----------4-----------9--------------------|
A|--2--------4--------2----------4----------4-----------9--------------------|
E|--2-(x16)--4-(x16)--2-(x3)-----4-(x3)-----4-(x3)------9-(x3)---------------|

e|---------------------------------------------------------------------------|
B|---------------------------------------------------------------------------|
G|---------11-(x7)-----------------------------------------------------------|
D|--9--------------2--------4------------------------------------------------|
A|--9--------------2--------4------------------------------------------------|
E|--9-(x3)---------2-(x16)--4-(x16)------------------------------------------|


e|---------------------------------------------------------------------------|
B|---------------------------------------------------------------------------|
G|------3~--4~--3~--4--3------3~--4~--3~--4--3-------------------------------|
D|---------------------------------------------------------------------------|
A|---------------------------------------------------------------------------|
E|--2~--------------------2~-------------------------------------------------|

Replay "I tried to show you the man..."
Guitar two plays outro
Tap to rate this tab
# A B C D E F G H I J K L M N O P Q R S T U V W X Y Z