Song name
# A B C D E F G H I J K L M N O P Q R S T U V W X Y Z

The Pretty Reckless - Kill Me tab

KEY   A# ( or capo 1)
INTRO : Eb Ab Db Gb Bb Eb


C5         D#5     A#5         F5            C5 D#5 A#5 F5
Everyday I wake up, everyday I wake up alone
C5         D#5     A#5         F5             C5  D#5
Everyday I wake up, everyday I wake up alone

E|------------------------------------------|
B|------------------------------------------|
G|------------------------------------------|
D|-5-5-5-5/8--------3-4-3-----5-5-5/8----5-5|  4x
A|-3-3-3-3/6----3/6-------6-3-3-3-3/6----3-3|
E|------------------------------------------|

C5
Let me open up the discussion with
ďIím not impressed with any mother fucking word I sayĒ
  C5
See I lied that cried when he came inside
And now Iím burning a highway to hades
C5
SHUT THE FUCK UP
         B5
When Iím trying to think
            Bb5                          G#5
I gotta to keep my concentration, give me one more drink
              F#5
And then Iíll try and remember
        G5                      F#5
all the advice that my good book told me
And all the lost souls say

C5          D#5     A#5        F5
Everyday I wake up, everyday I wake up alone
C5           D#5       A#5        F5
(Kill me just kill me) Oh, get me out of the sun
C5        D#5       A#5         F5
Everyday I wake Up, everyday I wake up alone
C5           D#5       A#5              F5
(Kill me just kill Me) someone get me out of the sun

E|------------------------------------------|
B|------------------------------------------|
G|------------------------------------------|
D|-5-5-5-5/8--------3-4-3-----5-5-5/8----5-5|  2x
A|-3-3-3-3/6----3/6-------6-3-3-3-3/6----3-3|
E|------------------------------------------|

C5
Drugs, bars, backseats of cars
       C5
Blowing boys what a boring life I've led so far
        C5
Just a prime thirteen when I rode his machine
Try to keep my body dirty and my eyes closed and clean
         C5                     B5
So with a wink and a smile and a dial of meth
          Bb5                             G#5
I took his hand and we walked through the shadow of death
          F#5
And then I tried to remember
         G5                   F#5
all the advice that my teacher told me
And all the lost souls sayÖ

C5          D#5     A#5        F5
Everyday I wake up, everyday I wake up alone
C5           D#5       A#5        F5
(Kill me just kill me) Oh, get me out of the sun
C5        D#5       A#5         F5
Everyday I wake up, everyday I wake up alone
C5           D#5         A#5              F5
(Kill me just kill Me) and get me out of the sun
C5 D#5 A#5            F5
        Someone get me out of the sun
C5 D#5 A#5            F5              G5 (alternand G5 e G#5)
        Someone get me out of the sun
C5
Deep depper depper inside pull the wool nice and tight
So that it covers your eyes...
Can't find a god a Love  Jesus  Father
I dont even care that much
So why do I even bother?Ö
Let me just end how I was
Gonna begin
Dont waste your time waiting cus Iím going back in
Now if i could just remember all the advices
that my mother told me
And all the...
 and all the lost souls say..

C5          D#5     A#5        F5
Everyday I wake up, everyday I wake up alone
C5           D#5       A#5        F5
(Kill me just kill me) Oh, get me out of the sun
C5        D#5       A#5         F5
Everyday I wake Up, everyday I wake up alone
C5           D#5         A#5              F5
(Kill me just kill Me) and get me out of the sun
C5 D#5 A#5            F5
        Someone get me out of the sun
C5 D#5 A#5            F5
        Someone get me out of the sun

E|------------------------------------------|
B|------------------------------------------|
G|------------------------------------------|
D|-5-5-5-5/8--------3-4-3-----5-5-5/8----5-5|  2x
A|-3-3-3-3/6----3/6-------6-3-3-3-3/6----3-3|
E|------------------------------------------|

THE END
Submitted by Taylor Momsen or.. SomeOne
Tap to rate this tab
# A B C D E F G H I J K L M N O P Q R S T U V W X Y Z