Song name
# A B C D E F G H I J K L M N O P Q R S T U V W X Y Z

The Pretty Reckless - Heaven Knows tab

/ slide
* palm mute

Verse Riff 1

e|----------------|
B|----------------|
G|----------------|
D|----------------| (play this a lot)
A|-5/7-7-7-7--7-7-|
E|-3/5-5-5-5--5-5-|
       * *    * *
Verse Riff 2

e|-2-2-22-3-2-0-0-2-2-22-3-2-0-0-|
B|-3-3-33-3-3-3-3-3-3-33-3-3-3-3-|
G|-2-2-22-2-2-2-2-2-2-22-2-2-2-2-|
D|-0-0-00-0-0-0-0-0-0-00-0-0-0-0-|
A|-------------------------------|
E|-------------------------------|

e|-------------------------------------------------------------|
B|-------------------------------------------------------------|
G|-------------------------------------------------------------|
D|-------------------------------------------------------------|
A|-5/7-7-7-7--7-7-5/7-7-7-7--7-7-5/7-7-7-7--7-7-5/7-7-7-7--7-7-|
E|-3/5-5-5-5--5-5-3/5-5-5-5--5-5-3/5-5-5-5--5-5-3/5-5-5-5--5-5-|

e|-2-2-22-3-2-0-0-2-2-22-3-2-0-0-|
B|-3-3-33---------3-3-33---------|
G|-2-2-22---------2-2-22---------|
D|-0-0-00---------0-0-00---------|
A|-------------------------------|
E|-------------------------------|

Verse Riff 1

end with A power chord

Chorus

e|------------------------------------------|
B|------------------------------------------|
G|------------------------------------------|
D|-------------7--7--------------5-----7--5-|
A|-7--7--5--5--5--5--7--7--7--5--3--7--5--3-|
E|-5--5--3--3--------5--5--5--3-----5-------|

then

e|----------------|
B|----------------|
G|----------------|
D|----------------| x7
A|-5-7-7-7-7--7-7-|
E|-3/5-5-5-5--5-5-|

then Verse Riff 2
end with A power chord, let ring

Chorus
Tap to rate this tab
# A B C D E F G H I J K L M N O P Q R S T U V W X Y Z