Song name
# A B C D E F G H I J K L M N O P Q R S T U V W X Y Z

The Prize Fighter Inferno - Run Like Hell tab

Song: Run Like Hell
Artist: The Prize Fighter Inferno
Tabbed by: Richard Doud


This song is my first tab, and I chose one that is moderatly easy to play.Most of the
tabs for Run Like Hell that I've seen are wrong in some parts, so I took the liberty
of writing a correct one.This song isn't on any CD, and can only be found on the web
via PVP.This tab is very dear to me so please do not steal it.

The only website that has rights to this tab is ultimate-guitar.com

*oh,and for all of you who are bad at figuring out the fingerings, I've included
them under the tabs.*

Tuning: Standard [E,A,D,G,B,E]

Try it in Drop D [D,A,D,G,B,E]

key:
x=mute note
>=strummed hard (don't bust a string)

Fingers:
1= pointer
2= Middle
3= ring
4= pinky

00:00
E|-x---x---x-x-x-x--|
B|-x---x---x-x-x-x--|
G|-x---x---x-x-x-x--|
D|-x---x---x-x-x-x--|
A|-x---x---x-x-x-x--|
E|-x---x---x-x-x-x--|

00:05
E|---------------|
B|---------------|
G|---------------|
D|----------4----|
A|-555555555-543-|
E|---------------|
   3333333332321
00:08
E|-----------------|
B|-----------------|
G|-----------------|
D|------------4----| X7
A|-0-555555555-543-|
E|-----------------|
     3333333332321
00:29
E|----------------------------------|
B|----------------------------------|
G|---77-5---77-5---------77-5---77-5|
D|-0-77-5-0-77-5---5-3-0-77-5-0-77-5|
A|-0-55-3-0-55-3-0-----0-55-3-0-55-3|
E|----------------------------------|
     33 3   33 3   3 1   33 3   33 3
     33 3   33 3         33 3   33 3
     11 1   11 1         11 1   11 1
00:35
E|-----------------|
B|-----------------|
G|-----------------|
D|-----------------| X4
A|-5-3-------------|
E|-----543-30-330--|
   3 1 321 1  11
00:48
E|----------------------|
B|----------------------|
G|-------------6--------|
D|-0-7-7-7-7-7-4-7-6-5--| X4
A|-0-5-5-5-5-5---5-4-3--|
E|----------------------|
     3 3 3 3 3 3 3 3 3
     1 1 1 1 1 1 1 1 1
 about 01:00
E|------------------|
B|------------------|
G|------------------|
D|-777777777-4------|
A|-555555555---543--|
E|------------------|
   333333333 2 321
   111111111
 about 01:03
E|--------------------|
B|--------------------|
G|--------------------|
D|-0-777777777-4------| X7
A|-0-555555555---543--|
E|--------------------|
     333333333 2 321
     111111111
01:24
E|----------------------------------|
B|----------------------------------|
G|---77-5---77-5---------77-5---77-5|
D|-0-77-5-0-77-5---5-3-0-77-5-0-77-5|
A|-0-55-3-0-55-3-0-----0-55-3-0-55-3|
E|----------------------------------|
     33 3   33 3   3 1   33 3   33 3
     11 1   11 1         11 1   11 1
01:30
E|-----------------|
B|-----------------|
G|-----------------|
D|-----------------| X4
A|-5-3-------------|
E|-----543-30-330--|
   3 1 321 1  11
01:42
E|----| |----| |----| |----| |----|
B|----| |----| |----| |----| |----|
G|----| |----| |----| |----| |----|
D|-10-| |--8-| |--7-| |--5-| |--8-| X2
A|--8-| |--6-| |--5-| |--3-| |--6-|
E|----| |----| |----| |----| |----|
    3      3      3      3      3
    1      1      1      1      1
02:07
E|----| |----| |----|
B|----| |----| |----|
G|--7-| |--5-| |--8-|
D|--7-| |--5-| |--8-|
A|--5-| |--3-| |--6-|
E|----| |----| |----|
    3      3      3
    3      3      3
    1      1      1
02:14
   >      >      >      >
E|----| |----| |----| |----|
B|----| |----| |----| |----|
G|--7-| |-10-| |--5-| |--3-|
D|--7-| |-10-| |--5-| |--3-| X4
A|--5-| |--8-| |--3-| |--1-|
E|----| |----| |----| |----|
    3      3      3      3
    3      3      3      3
    1      1      1      1
03:04
E|----|
B|----|
G|--7-|
D|--7-|
A|--5-|
E|--0-|
    3
    3
    1
03:10
|Who shot Freaky Zeeky?|

well, that's it.I hope the finderings didn't mess you up at all.If they did just take
to notepad and delete the fingerings out before printing.I will probably end up making a
Like Hell 2.0 and add some lyrics, but right now i need to get to sleep because it's 
a.m. and i've got school tomorrow!
Tap to rate this tab
# A B C D E F G H I J K L M N O P Q R S T U V W X Y Z