Song name
# A B C D E F G H I J K L M N O P Q R S T U V W X Y Z

The Radio Dept - Sleeping In tab

This was all played by ear. I do not have no sheet music for this beautiful song. Enjoy.






Introduction: 


E|--0---------0---------0---------0--------0--------0--------0----------0----------------|
B|----7---------7---------7---------7--------9--------9--------9----------9--------------|
G|------6---------6---------6---------6--------8--------8--------8----------8------------|
D|--------7---------7---------7---------7--------9--------9--------9----------9----------|
A|---------------------------------------------------------------------------------------|
E|---------------------------------------------------------------------------------------|

E|--0---------0---------0---------0--------0--------0--------0----------7----------------|
B|----7---------7---------7---------7--------4--------4--------4--------8----------------|
G|------6---------6---------6---------6--------4--------4--------4------9---let it ring--|
D|--------7---------7---------7---------7------------------------------------------------|
A|---------------------------------------------------------------------------------------|
E|---------------------------------------------------------------------------------------|


Verse:


E|--0---------0---------0---------0--------0--------0--------0---------0-----------------|
B|----7---------7---------7---------7--------9--------9--------9---------9---------------|
G|------6---------6---------6---------6--------8--------8--------8---------8-------------|
D|--------7---------7---------7---------7--------9--------9--------9---------9-----------|
A|---------------------------------------------------------------------------------------|
E|---------------------------------------------------------------------------------------|


E|--0---------0---------0---------0--------0--------0--------0---------0-----------------|
B|----7---------7---------7---------7--------9--------9--------9---------9---------------|
G|------6---------6---------6---------6--------8--------8--------8---------8-------------|
D|--------7---------7---------7---------7--------9--------9--------9---------9-----------|
A|---------------------------------------------------------------------------------------|
E|---------------------------------------------------------------------------------------|

E|--0---------0---------0---------0------------------0--------------0--------------------|
B|----7---------7---------7---------7--------------4--------------4----------------------|
G|------6---------6---------6---------6----------4--------------4------------------------|
D|--------7---------7---------7---------7------2--------------2--------------------------|
A|---------------------------------------------------------------------------------------|
E|---------------------------------------------------------------------------------------|

Chours:


E|-------------------0------------------0-------------0------------------------------------|
B|--------5--------4------------------4-------------4--------------------------------------|
G|------6--------4------------------4-------------4----------------------------------------|
D|----6---------------------------2-------------2------------------------------------------|
A|--4----------2---------------------------------------------------------------------------|
E|-----------------------------------------------------------------------------------------| x2


Verse:

E|--0---------0---------0---------0--------0--------0--------0----------0----------------|
B|----7---------7---------7---------7--------9--------9--------9----------9--------------|
G|------6---------6---------6---------6--------8--------8--------8----------8------------|
D|--------7---------7---------7---------7--------9--------9--------9----------9----------|
A|---------------------------------------------------------------------------------------|
E|---------------------------------------------------------------------------------------|

E|--0---------0---------0---------0--------0--------0--------0----------7----------------|
B|----7---------7---------7---------7--------4--------4--------4--------8----------------|
G|------6---------6---------6---------6--------4--------4--------4------9---let it ring--|
D|--------7---------7---------7---------7------------------------------------------------|
A|---------------------------------------------------------------------------------------|
E|---------------------------------------------------------------------------------------|



E|--0---------0---------0---------0--------0--------0--------7----------7----------7-----|
B|----7---------7---------7---------7--------9--------9--------9----------9--------------|
G|------6---------6---------6---------6--------8--------8--------8----------8------------|
D|--------7---------7---------7---------7--------9--------9------------------------------|
A|---------------------------------------------------------------------------------------|
E|---------------------------------------------------------------------------------------|

E|--0---------0---------5---------5------5----0--------0--------7----------7------7---------|
B|----7---------7---------7---------7-----------9--------9--------9----------9--------------|
G|------6---------6---------6---------6-----------8--------8--------8----------8------------|
D|--------7---------7-------------------------------9--------9------------------------------|
A|------------------------------------------------------------------------------------------|
E|------------------------------------------------------------------------------------------|


E|--0---------0---------5---------5------5----------0---------------0-----------------------|
B|----7---------7---------7---------7-------------4---------------4-------------------------|
G|------6---------6---------6---------6---------4---------------4---------------------------|
D|--------7---------7-------------------------2---------------2-----------------------------|
A|------------------------------------------------------------------------------------------|
E|------------------------------------------------------------------------------------------|

Chours:


E|-------------------0------------------0-------------0------------------------------------|
B|--------5--------4------------------4-------------4--------------------------------------|
G|------6--------4------------------4-------------4----------------------------------------|
D|----6---------------------------2-------------2------------------------------------------|
A|--4----------2---------------------------------------------------------------------------|
E|-----------------------------------------------------------------------------------------| x2


Outro:


E|--0---------0---------0---------0--------0--------0--------7----------7----------7------|
B|----7---------7---------7---------7--------9--------9--------9----------9---------------|
G|------6---------6---------6---------6--------8--------8--------8----------8-------------|
D|--------7---------7---------7---------7--------9--------9-------------------------------|
A|----------------------------------------------------------------------------------------|
E|----------------------------------------------------------------------------------------| x6

Lyrics to Sleeping In :
Sleeping when the day breaks 
Dreaming as the evening falls 
He's got no more headaches 
Leaving us with empty walls 
The last of many efforts 

I know it's not my place 
But I don't even wonder why 
What commitment 
What grace 
To just refuse to be alive


If you have any corrections, please post them in the comments. Thank you.
Tap to rate this tab
# A B C D E F G H I J K L M N O P Q R S T U V W X Y Z