Song name
# A B C D E F G H I J K L M N O P Q R S T U V W X Y Z

The Rifles - The General tab

-------------------------------------------------------------------------------
			     The General - The Rifles
-------------------------------------------------------------------------------
Tabbed by: alex
Email: alex.rau@gmx.de

Tuning: Standart
That's my favourite song from the new album, which is great like the first one. Great band!!

Intro:
Guitar 1: (Rhythm Guitar)
Am_     _     _   _     _     _                                          Dm
e|5-----5-----5-555-----5-----5-555-5------------------------------------5-|
B|5-----5-----5-555-----5-----5-555-5------------------------------------6-|
G|5-5-5-5-5-5-5-555-5-5-5-5-5-5-555-5-------x4--then-the-same-rythm-with-7-|
D|7-7-7-7-7-7-7-777-7-7-7-7-7-7-777-7----------------------------x2->----7-|
A|7-7-7-7-7-7-7-777-7-7-7-7-7-7-777-7------------------------------------5-|
E|5-5-5-5-5-5-5-555-5-5-5-5-5-5-555-5------------------------------------x-|

Violines: (or Guitar 2)
e|10~9--8-109-10~9--8-|
B|--------------------|
G|--------------------| x8
D|--------------------|
A|--------------------|
E|--------------------|

e|8--7--5-8-7-8--7--5-|
B|--------------------|
G|--------------------| x8
D|--------------------|
A|--------------------|
E|--------------------|

----------------------------------------------------------------------------------

Then Both:
  A               D
e|5-5-5-5-5-5-5-5-5-5-5-5-5-5-5-5------------------------------------------|
B|5-5-5-5-5-5-5-5-7-7-7-7-7-7-7-7------------------------------------------|
G|5-5-5-5-5-5-5-5-7-7-7-7-7-7-7-7------------------------------------------|
D|7-7-7-7-7-7-7-7-7-7-7-7-7-7-7-7------------------------------------------|
A|7-7-7-7-7-7-7-7-5-5-5-5-5-5-5-5------------------------------------------|
E|5-5-5-5-5-5-5-5-x-x-x-x-x-x-x-x------------------------------------------|

----------------------------------------------------------------------------------

Guitar 1:

e|7---7---7---7---7---7---7---7---5---5---5---5---5---5---5---5------------|
B|7---7---7---7---7---7---7---7---5---5---5---5---5---5---5---5------------|
G|7---7---7---7---7---7---7---7---5---5---5---5---5---5---5---5------------|
D|9---9---9---9---9---9---9---9---7---7---7---7---7---7---7---7------------|
A|9---9---9---9---9---9---9---9---7---7---7---7---7---7---7---7------------|
E|7---7---7---7---7---7---7---7---5---5---5---5---5---5---5---5------------|

Guitar 2: (Trompets)
e|7-----7-5-7-8-7-5-----5-5-5-7-8-7-----7-5-7-8-7-5-7-8-10-----------------|
B|-------------------------------------------------------------------------|
G|-------------------------------------------------------------------------|
D|-------------------------------------------------------------------------|
A|-------------------------------------------------------------------------|
E|-------------------------------------------------------------------------|

----------------------------------------------------------------------------------

Verse:
Guitar 1:
Am_     _     _   _     _     _   Em                                     
e|5-----5-----5-555-----5-----5-55777777777777777777777777777777775--------|
B|5-----5-----5-555-----5-----5-55888888888888888888888888888888885--------|
G|5-5-5-5-5-5-5-555-5-5-5-5-5-5-55999999999999999999999999999999995--------|
D|7-7-7-7-7-7-7-777-7-7-7-7-7-7-77999999999999999999999999999999997--------|
A|7-7-7-7-7-7-7-777-7-7-7-7-7-7-77777777777777777777777777777777777--------|
E|5-5-5-5-5-5-5-555-5-5-5-5-5-5-55xxxxxxxxxxxxxxxxxxxxxxxxxxxxxxxx5--------|

  Am                              Em
e|55555555555555555555555555555555777777777777777777777777777777775--------|
B|55555555555555555555555555555555888888888888888888888888888888885--------|
G|55555555555555555555555555555555999999999999999999999999999999995--------|
D|77777777777777777777777777777777999999999999999999999999999999997--------|
A|77777777777777777777777777777777777777777777777777777777777777777--------|
E|55555555555555555555555555555555xxxxxxxxxxxxxxxxxxxxxxxxxxxxxxxxx--------|
  When he was younger, he could...
  Am                              Em              D
e|5555555555555555555555555555555577777777777777775555555555555555---------|
B|5555555555555555555555555555555588888888888888887777777777777777---------|
G|5555555555555555555555555555555599999999999999997777777777777777---------|
D|7777777777777777777777777777777799999999999999997777777777777777---------|
A|7777777777777777777777777777777777777777777777775555555555555555---------|
E|55555555555555555555555555555555xxxxxxxxxxxxxxxxxxxxxxxxxxxxxxxx---------|
                                                   ......Glory day
Guitar 2:
e|-------------------------------------------------------------------------|
B|-------------------------------------------------------------------------|
G|-------------------------------------------------------------------------|
D|-------------------------------------------------------------------------|
A|--------------------------------107-7-107-7-107-107-7-107-7-10-7-x4------|
E|-------------------------------------------------------------------------|



----------------------------------------------------------------------------

Chorus:
Guitar 1:
 C        Em      C       G   
e|888888887777777788888888333333333----------------------------------------|
B|888888888888888888888888333333333----------------------------------------|
G|999999999999999999999999444444444----------------------------------------|
D|101010109999999910101010555555555----------------------------------------|
A|101010107777777710101010555555555----------------------------------------|
E|88888888xxxxxxxx88888888333333333----------------------------------------|

 C        Em      C       G   F
e|888888887777777788888888333311111----------------------------------------|
B|888888888888888888888888333311111----------------------------------------|
G|999999999999999999999999444422222----------------------------------------|
D|101010109999999910101010555533333----------------------------------------|
A|101010107777777710101010555533333----------------------------------------|
E|88888888xxxxxxxx88888888333311111----------------------------------------|

Guitar 2:
e|-------------------------------------------------------------------------|
B|----8-------8-------8----------------------------------------------------|
G|--9-------9-------9------------------------------------------------------|
D|10------9-------10------5-5-7-9-7-5--------------------------------------|
A|-------------------------------------------------------------------------|
E|-------------------------------------------------------------------------|

e|-------------------------------------------------------------------------|
B|----8-------8-------8----------------------------------------------------|
G|--9-------9-------9------------------------------------------------------|
D|10------9-------10------5-5--33333---------------------------------------|
A|-------------------------------------------------------------------------|
E|-------------------------------------------------------------------------|


| /  slide up
| \  slide down
| h  hammer-on
| p  pull-off
| ~  vibrato
| +  harmonic
| x  Mute note
===============================================================================
Tap to rate this tab
# A B C D E F G H I J K L M N O P Q R S T U V W X Y Z