The Scene Aesthetic - Talk About Love tab

Tabbed by: edibleunicorns@gmail.com
Please email me if you think there should be a correction. :D

I tabbed this by watching the live acoustic version they have on their Youtube.

It's in half step down tuning(Eb, Ab, Db, Gb, Bb, Eb)
Fairly easy song. Love it? Of course you do.

The beginning of the verse when Andrew sings it's just one stroke on each chord. But 
when Eric starts singing, it's just strumming.
x5
e|------0---------0--------0-------0-------0-------------------------------|
B|------0---------0--------0-------0-------0-------------------------------|
G|------9---------9--------9-------9-------9p8-----------------------------|
D|------9---------9--------9-------9-------9-------------------------------|
A|------7---------x--------0-------x-------x-------------------------------|
E|----------------7----------------7-------7-------------------------------|

Pre-Chorus:

e|-----0--------0------0----------0------0------0------0-------------------|
B|-----0--------0------0----------0------0------0------0-------------------|
G|-----6--------8------9----------9------9------6------8-------------------|
D|-----7--------9------9----------9------9------7------9-------------------|
A|-----7--------9------0----------x------x------7------9-------------------|
E|-----5--------7---------------9-9----7-7------5------7-------------------|

Chorus:
e|-----0-----0-----0-------0-----0----0-----0------------------------------|
B|-----0-----0-----0-------0-----0----0-----0------------------------------|
G|-----1-----2-----4-------6-----4----2-----4------------------------------|
D|-----2-----2-----4-------6-----4----2-----4------------------------------|
A|-----2-----0-----2-------4-----2----0-----2------------------------------|
E|-----0-------------------------------------------------------------------|

e|-----0-----0-----0-----0----0----0----0-----0---0---0--------------------|
B|-----0-----0-----0-----0----0----0----0-----0---0---0--------------------|
G|-----1-----2-----4-----6----4----2----6-----4---2---4--------------------|
D|-----2-----2-----4-----6----4----2----6-----4---2---4--------------------|
A|-----2-----0-----2-----4----2----0----4-----2---0---2--------------------|
E|-----0-------------------------------------------------------------------|

Interlude/Verse:
x5
e|------0---------0--------0-------0-------0-------------------------------|
B|------0---------0--------0-------0-------0-------------------------------|
G|------9---------9--------9-------9-------9p8-----------------------------|
D|------9---------9--------9-------9-------9-------------------------------|
A|------7---------x--------0-------x-------x-------------------------------|
E|----------------7----------------7-------7-------------------------------|


Pre-Chorus:

e|-----0--------0------0----------0------0------0------0-------------------|
B|-----0--------0------0----------0------0------0------0-------------------|
G|-----6--------8------9----------9------9------6------8-------------------|
D|-----7--------9------9----------9------9------7------9-------------------|
A|-----7--------9------0----------x------x------7------9-------------------|
E|-----5--------7---------------9-9----7-7------5------7-------------------|

Chorus:


Bridge:
x5
e|-----0-----0-----0-----0-------------------------------------------------|
B|-----0-----0-----0-----0-------------------------------------------------|
G|-----6-----4-----2-----1-------------------------------------------------|
D|-----6-----4-----2-----2-------------------------------------------------|
A|-----4-----2-----0-----2-------------------------------------------------|
E|-----------------------0-------------------------------------------------|

Pre-chorus:

e|-----0--------0------0----------0------0------0------0-------------------|
B|-----0--------0------0----------0------0------0------0-------------------|
G|-----6--------8------9----------9------9------6------8-------------------|
D|-----7--------9------9----------9------9------7------9-------------------|
A|-----7--------9------0----------x------x------7------9-------------------|
E|-----5--------7---------------9-9----7-7------5------7-------------------|

Chorus:

e|-----0-----0-----0-------0-----0----0-----0------------------------------|
B|-----0-----0-----0-------0-----0----0-----0------------------------------|
G|-----1-----2-----4-------6-----4----2-----4------------------------------|
D|-----2-----2-----4-------6-----4----2-----4------------------------------|
A|-----2-----0-----2-------4-----2----0-----2------------------------------|
E|-----0-------------------------------------------------------------------|

e|-----0-----0-----0-----0----0----0----0-----0---0---0--------------------|
B|-----0-----0-----0-----0----0----0----0-----0---0---0--------------------|
G|-----1-----2-----4-----6----4----2----6-----4---2---4--------------------|
D|-----2-----2-----4-----6----4----2----6-----4---2---4--------------------|
A|-----2-----0-----2-----4----2----0----4-----2---0---2--------------------|
E|-----0-------------------------------------------------------------------|

Ending:

e|-----0----0-----0------0------0------------------------------------------|
B|-----0----0-----0------0------0------------------------------------------|
G|-----6----4-----2------4------1------------------------------------------|
D|-----6----4-----2------4------2------------------------------------------|
A|-----4----2-----0------2------2------------------------------------------|
E|------------------------------0------------------------------------------|
Tap to rate this tab
 
# A B C D E F G H I J K L M N O P Q R S T U V W X Y Z