Guitaretab - guitar tabs
Song name
# A B C D E F G H I J K L M N O P Q R S T U V W X Y Z

The Script - The Man Who Cant Be Moved chords

Highlighted       Show chord diagrams
SONG: The Man Who Can't Be Moved
ARTIST: The Script
ALBUM: The Script

CAPO 3rd Fret
Where you see a chord, there you play the corresponding tab.

INTRO & VERSES

e----------------------/-------------/----------------|
B----------------------/-------------/---------0------|
G------0---------0-----/----0---0----/-----2----------|
D----------------------/-------------/---5----5----5--|
A---2---------2------2-/---2---2---2-/--3----3---3----|
E-3---------3------3---/--2---2---2--/----------------|
                                     / (Here X2)     /
          G                G/F#        C
     G                         G/F#
Going Back to the corner where I first saw you
      C
Gonna camp in my sleeping bag I'm not gonna move
         G                             G/F#
Got some words on cardboard, got your picture in my hand
       C
Saying, "If you see this girl can you tell her where I am?"
           G                         G/F#
Some try to hand me money, they don't understand
       C
I'm not broke I'm just a broken hearted man
         G                             G/F#
I know it makes no sense but what else can I do
C
How can I move on when I'm still in love with you


CHORUS
e-----------/----------/----------/-----------------|
B-----------/---0--0---/----------/---0--0----------|
G----0---0--/----------/---4--4---/-----------------| ALL THIS X3
D-----------/--4--4--4-/--5--5--5-/--2--2--2--------|
A--2----2--2/-5--5--5--/-0--0--0--/-3--3--3---------|
E3-----3--3-/----------/----------/-----------------|
   G            D(maj6)       Am     C(maj7)
[ Tab from: http://www.guitaretab.com/t/the-script/290648.html ]
       G                                D
Cos if one day you wake up and find that you're missin me
        Am                                   C
And your heart starts to wonder where on this earth I could be
       G                                  D
Thinkin maybe you'll come back here to the place that we'd meet
           Am                            C
And you'll see me waiting for you on the corner of the street
          G      D         Am         C
So I'm not moving, I'm not moving

Verse 2

e----------------------/-------------/----------------|
B----------------------/-------------/---------0------|
G------0---------0-----/----0---0----/-----2----------|
D----------------------/-------------/---5----5----5--|
A---2---------2------2-/---2---2---2-/--3----3---3----|
E-3---------3------3---/--2---2---2--/----------------|
                                     / (Here X2)     /
     G                   G/F#          C
G                       G/F#
Policeman says, "Son you can't stay here"
       C
I said, "There's someone I'm waiting for if it's a day, a month, a year"
       G                       G/F#
Gotta stand my ground even if it rains or snows
   C
If she changes her mind this is the first place she will go

CHORUS

BRIDGE
e--0--0---/----------/----------/-----------------|
B---------/---3--0---/---0------/---1--0----------|
G---------/----------/------2---/-----------------|
D-2--2--2-/--2--2--2-/--4--4--4-/--2--2--2--------|
A---------/-3--3--3--/-5--5--5--/-0--0--0---------|
E0--0--0--/----------/----------/-----------------|
  Em(7)      C         D             Am

Em                    C                       D        Am
People talk about the guy that's waiting on a girl
Em                         C                          D         Am
There are no holes in his shoes but a big hole in his world
C                            D
Maybe I'll get famous as the man who can't be moved
C                                 D
Maybe you wont mean to but you'll see me on the news
                 C                D
And you'll come running to the corner
                                 A(add9)
'cause you'll know it's just for you

I'm the man who can't be moved

[Chorus 2x]

Going back to the corner where I first saw you
Gonna camp in my sleeping bag, I'm not gonna move
Related for The Man Who Cant Be Moved chords
×
Best way to learn
"The Man Who Cant Be Moved"