Song name
# A B C D E F G H I J K L M N O P Q R S T U V W X Y Z

The Sheepdogs - Feeling Good tab

-----------------------------------------------------------------------------
                             Feeling Good - The Sheepdogs
-----------------------------------------------------------------------------

Tuning: Standard

Intro - Guitar 1:
e|-----------------|
B|-----------------|
G|-----------------|
D|-----------------|
A|-----------------|
E|--3-3-3-6-6-6-3--|


Intro - Guitar 2:
e|---9-7----------|
B|---9-7--7-5-----|
G|--------7-5-----|
D|----------------|
A|----------------|
E|----------------|


Verse:
e|--------------------------------|
B|---7-------------3--------------|
G|---7--7-7-7-7-7--5--3-3-3-3-3---| Repeat x3
D|---5--7-7-7-7-7--5--5-5-5-5-5---|
A|------5-5-5-5-5-----5-5-5-5-5---|
E|--------------------------------|

e|------------------------------------------|
B|--7---------------------------------------|
G|--7--7-7-7-7-7---3-3--5-5-----------------|  
D|--5--7-7-7-7-7---3-3--5-5---5--5-5-5-5----|
A|-----5-5-5-5-5---1-1--3-3---5--5-5-5-5----|
E|----------------------------3--3-3-3-3----|


Solo:
e|--------------------------|
B|--------------------------|
G|------9-7-9-/5-7-5-3-5-3--| Repeat x3
D|---/9---------------------|
A|--------------------------|
E|--------------------------|

e|--------------------------|
B|--------------------------|
G|--/5-7-5-3-5-3-5-3--------| Repeat x2
D|--------------------------|
A|--------------------------|
E|--------------------------|

e|--------------------------------|
B|--------------------------------|
G|--/5-7-5-3-5-3------------------|
D|---------------5-3-5-5-5-5-5----|
A|--------------------------------|
E|--------------------------------|

Song Order:
Intro - Guitar 1/Intro - Guitar 2
Verse
Intro - Guitar 1/Intro - Guitar 2
Verse
Solo/Intro Guitar 2
Intro - Guitar 1/Intro - Guitar 2
Verse
Intro - Guitar 1/Intro - Guitar 2
Solo/Intro Guitar 2


************************************

| /   slide up
| \   slide down
| h   hammer-on
| p   pull-off
| ~   vibrato
| +   harmonic
| x   Mute note
| b   Bend
| pb  Pre-bend
| br  Bend release
| pbr Pre-bend release
| brb Bend release bend

************************************
Tap to rate this tab
# A B C D E F G H I J K L M N O P Q R S T U V W X Y Z