Song name
# A B C D E F G H I J K L M N O P Q R S T U V W X Y Z

The Sorrow - Retracing Memories tab

-------------------------------------------------------------------------------
                          Retracing Memories - The Sorrow
-------------------------------------------------------------------------------

Tuning: Dropped Db/C#   Db Ab Db Gb Bb Eb / C# G# C# F# A# D#
Tempo: ca. 70 BPM
Tabbed by: Maxi Niessl
E-mail: themaexmon@gmx.de (ask me if you have questions :P)

Enjoy :)

Intro:

Matze:

   4/4
Eb|-----------------      -----------------      |
Bb|-----------------      -----------------      |
Gb|-----------------  x2  -----------------  x2  |
Db|-----------------      -----------------      |
Ab|-----------------      -----------------      |
Db|-3000000000000000      -000000000000000-      |


Andi:

Eb|-----------------      --------------------      |
Bb|-----------------      --------------------      |
Gb|-----------------  x2  --------------------  x2  |
Db|-----------------      -3333333333333333---      |
Ab|-----------------      -5555555555555555---      |
Db|-3000000000000000      --------------------      |


Matze & Andi:


   4/4                      5/4
Eb|-----------------------| -----------------------------|
Bb|-----------------------| -----------------------------|
Gb|-----------------------| -----------------------------|
Db|-3--3--3------------3--| -2--2--2---------------2--2--|
Ab|-1--1--1------------1--| -3--3--3---------------3--3--|
Db|-----------------------| -----------------------------|

repeat 2x, but in the second tact of the second part is the 5/4 tact an 4/4 tact and the 
same as the first part.


Verse:

Matze & Andi:

   PM------------------------------------------|
Eb|--------------| -------------------|--------|
Bb|--------------| -------------------|--------|
Gb|--------------| -------------------|--------|
Db|--------------| -------------------|--------|
Ab|-0000000000---| -----0-00-00-0-00-0|0-------|
Db|-0000000000---| -----0-00-00-0-00-0|0-------|

   PM------------------------------------------|
Eb|--------------| -------------------|--------|
Bb|--------------| -------------------|--------|
Gb|--------------| -------------------|--------|
Db|--------------| -------------------|--------|
Ab|-0000000000---| -----0-00-00-0-00-0|3-------|
Db|-0000000000---| -----0-00-00-0-00-0|5-------|


Matze:


   PM------------------------------------------|
Eb|--------------| -------------------|--------|
Bb|--------------| -------------------|--------|
Gb|--------------| -------------------|--------|
Db|--------------| -------------------|--------|
Ab|-0000000000---| -----0-00-00-0-00-0|0-------|
Db|-0000000000---| -----0-00-00-0-00-0|0-------|

   PM------------------------------------------|
Eb|--------------| -------------------|--------|
Bb|--------------| -------------------|--------|
Gb|--------------| -------------------|--------|
Db|--------------| -------------------|--------|
Ab|-0000000000---| -----0-00-00-0-00-0|3-------|
Db|-0000000000---| -----0-00-00-0-00-0|5-------|


Andi:
   4/4
     PM----   PM   PM   PM   PM    PM--   PM   PM------------------------------|
Eb|-------------------------------|------------------|-------------------------|
Bb|-------------------------------|------------------|-------------------------|
Gb|-------------------------------|------------------|-------------------------|
Db|--0000003p0008p0005p0007p0007p0|00005p0003p0000000|003p02p0---3p02p0---2h3--|
Ab|-------------------------------|------------------|--------3p0------3p0-----|
Db|-------------------------------|------------------|-------------------------|

repeat Andi's part 2x

Main-Riff:

Matze:


Eb|-----------------      -----------------      |
Bb|-----------------      -----------------      |
Gb|-----------------  x2  -----------------  x2  |
Db|-----------------      -----------------      |
Ab|-----------------      -----------------      |
Db|-3000000000000000      -000000000000000-      |


Andi:


Eb|-----------------      --------------------      |
Bb|-----------------      --------------------      |
Gb|-----------------  x2  --------------------  x2  |
Db|-----------------      -3333333333333333---      |
Ab|-----------------      -5555555555555555---      |
Db|-3000000000000000      --------------------      |

Matze & Andi:


                                              A.H.
Eb|-----------------------| ----------------------|
Bb|-----------------------| ----------------------|
Gb|-----------------------| -------------------5--|
Db|-3--3--3------------3--| -2--2--2--------------|
Ab|-1--1--1------------1--| -3--3--3--------------|
Db|-----------------------| ----------------------|

repeat verse again.

Pre-Chorus:

Matze & Andi

Eb|----------------|---------------|
Bb|----------------|---------------|
Gb|----------------|---------------|
Db|----------------|---------------|
Ab|-11111115-555555|00000004-444444|
Db|-11111115-555555|00000004-444444|

                                        PM
Eb|----------------|------------------------|
Bb|----------------|------------------------|
Gb|----------------|------------------------|
Db|----------------|------------------------|
Ab|-11111115-555555|12-0-12-0-12-0-12-0-0---|
Db|-11111115-555555|12-0-12-0-12-0-12-0-0---|


Chorus:

Matze & Andi


Eb|-----------------|---------------------------------------|
Bb|-----------------|---------------------------------------|
Gb|-----------------|---------------------------------------|
Db|-8-88-8888-88-888|10--10-10--10-10-10-10--10-10--10-10-10|
Ab|-8-88-8888-88-888|10--10-10--10-10-10-10--10-10--10-10-10|
Db|-8-88-8888-88-888|10--10-10--10-10-10-10--10-10--10-10-10|


Eb|---------------|---------------|
Bb|---------------|---------------|
Gb|---------------|---------------|
Db|0---12---0-----|0---12---0-----|
Ab|0---12---0-----|0---12---0-----|
Db|0---12---0-----|0---12---0-----|

Matze:

Eb|----------------------|-----------------------|---------------|---------------|
Bb|----------------------|-----------------------|---------------|---------------|
Gb|----------------------|-----------------------|---------------|---------------|
Db|-8-88------3/7/5------|10--10-10--------------|0---12---0-----|0---12---0-----|
Ab|-8-88-----------8/7-3-|10--10-10-7/5---8/7----|0---12---0-----|0---12---0-----|
Db|-8-88--5/8------------|10--10-10---8p7---10p7-|0---12---0-----|0---12---0-----|

Andi:

Eb|-----------------|---------------------------------------|
Bb|-----------------|---------------------------------------|
Gb|-----------------|---------------------------------------|
Db|-8-88-8888-88-888|10--10-10--10-10-10-10--10-10--10-10-10|
Ab|-8-88-8888-88-888|10--10-10--10-10-10-10--10-10--10-10-10|
Db|-8-88-8888-88-888|10--10-10--10-10-10-10--10-10--10-10-10|


Eb|---------------|---------------|
Bb|---------------|---------------|
Gb|---------------|---------------|
Db|0---12---0-----|0---12---0-----|
Ab|0---12---0-----|0---12---0-----|
Db|0---12---0-----|0---12---0-----|

Verse II:


Matze:

   PM------------------------------------------|
Eb|--------------| -------------------|--------|
Bb|--------------| -------------------|--------|
Gb|--------------| -------------------|--------|
Db|--------------| -------------------|--------|
Ab|-0000000000---| -----0-00-00-0-00-0|0-------|
Db|-0000000000---| -----0-00-00-0-00-0|0-------|

   PM------------------------------------------|
Eb|--------------| -------------------|--------|
Bb|--------------| -------------------|--------|
Gb|--------------| -------------------|--------|
Db|--------------| -------------------|--------|
Ab|-0000000000---| -----0-00-00-0-00-0|3-------|
Db|-0000000000---| -----0-00-00-0-00-0|5-------|


Andi:

     PM----   PM   PM   PM   PM    PM--   PM   PM------------------------------|
Eb|-------------------------------|------------------|-------------------------|
Bb|-------------------------------|------------------|-------------------------|
Gb|-------------------------------|------------------|-------------------------|
Db|--0000003p0008p0005p0007p0007p0|00005p0003p0000000|003p02p0---3p02p0---2h3--|
Ab|-------------------------------|------------------|--------3p0------3p0-----|
Db|-------------------------------|------------------|-------------------------|

repeat Andi's part 2x

repeat complete verse II, but end up the last from Andi with:

Eb|-------------------------------|
Bb|-------------------------------|
Gb|-------------------------------|
Db|-5h7p5p0-3h5p3p0p2h3p2p0-------|
Ab|------------------------3h5p3p0|
Db|-------------------------------|


Chorus II:

Matze:

Eb|-----------------|---------------------------------------|
Bb|-----------------|---------------------------------------|
Gb|-----------------|---------------------------------------|
Db|-8-88-8888-88-888|10--10-10--10-10-10-10--10-10--10-10-10|
Ab|-8-88-8888-88-888|10--10-10--10-10-10-10--10-10--10-10-10|
Db|-8-88-8888-88-888|10--10-10--10-10-10-10--10-10--10-10-10|


Eb|---------------|---------------|
Bb|---------------|---------------|
Gb|---------------|---------------|
Db|0---12---0-----|0---12---0-----|
Ab|0---12---0-----|0---12---0-----|
Db|0---12---0-----|0---12---0-----|

Andi:

    T              T               T
Eb|-13-0-5-6- x10 -12-0-8-10- x10 -10-0-3-5-| x20
Bb|----------     -----------     ----------|
Gb|----------     -----------     ----------|
Db|----------     -----------     ----------|
Ab|----------     -----------     ----------|
Db|----------     -----------     ----------|

repeat both 2x

Interlude:

Matze:
   <- - - - - - - - - - - - - - - - - - - - - - - - - - - - -
Eb|------------------------------|--------------------------|
Bb|------------------------------|--------------------------|
Gb|------------------------------|--------------------------|
Db|------------------------------|---------------------8/5/7|
Ab|-00-00-0--00000-00000011-11-1-|-00-00-0--00000-0000-5/3/5|
Db|-00-00-0--00000-00000000-00-0-|-00-00-0--00000-0000------|

Matze & Andi:

Eb|------------------------------|--------------------------|
Bb|------------------------------|--------------------------|
Gb|------------------------------|--------------------------|
Db|------------------------------|---------------------5/3/2|
Ab|-00-00-0--00000-00000011-11-1-|-00-00-0--00000-0000-5/3/2|
Db|-00-00-0--00000-00000000-00-0-|-00-00-0--00000-0000-5-3-2|

Matze & Andi

Eb|------------------------------|--------------------------|
Bb|------------------------------|--------------------------|
Gb|------------------------------|--------------------------|
Db|------------------------------|---------------------8/5/7|
Ab|-00-00-0--00000-00000011-11-1-|-00-00-0--00000-0000-5/3/5|
Db|-00-00-0--00000-00000000-00-0-|-00-00-0--00000-0000------|

Eb|------------------------------|--------------------------|
Bb|------------------------------|--------------------------|
Gb|------------------------------|--------------------------|
Db|------------------------------|---------------------5/3/2|
Ab|-00-00-0--00000-00000011-11-1-|-00-00-0--00000-0000-5/3/2|
Db|-00-00-0--00000-00000000-00-0-|-00-00-0--00000-0000-5-3-2|


Solo:

Matze:

Eb|---------------------------------|------------------------------|
Bb|---------------------------------|------------------------------|
Gb|---------------------------------|------------------------------|
Db|---------------------------------|-------------------------8-5-7|
Ab|-0-0-0-0-0-0-0-0-0-0-0-0-1-1-1-1-|-0-0-0-0-0-0-0-0-0-0-0-0-5-3-5|
Db|-0-0-0-0-0-0-0-0-0-0-0-0-0-0-0-0-|-0-0-0-0-0-0-0-0-0-0-0-0------|

Eb|---------------------------------|------------------------------|
Bb|---------------------------------|------------------------------|
Gb|---------------------------------|------------------------------|
Db|---------------------------------|-------------------------5-3-2|
Ab|-0-0-0-0-0-0-0-0-0-0-0-0-1-1-1-1-|-0-0-0-0-0-0-0-0-0-0-0-0-5-3-2|
Db|-0-0-0-0-0-0-0-0-0-0-0-0-0-0-0-0-|-0-0-0-0-0-0-0-0-0-0-0-0-5-3-2|

Andi:

Eb|-10-----10-----10-----10-----10----|
Bb|-13b15--13b15--13b15--13b15--13b15-|
Gb|-----------------------------------|
Db|-----------------------------------|
Ab|-----------------------------------|
Db|-----------------------------------|

Eb|----------------------------------------------------|
Bb|-19-16-15-16-15----15-------------------------------|
Gb|----------------17----17-15-17-15-14-15-14----14----|
Db|-------------------------------------------17----17-|
Ab|----------------------------------------------------|
Db|----------------------------------------------------|

                           A.H.
Eb|-----------------------------|-----------------------------|
Bb|-----------------------------|-----------------------------|
Gb|-----------------------------|-------------14--------15-14-|
Db|-----------------------------|-12-12-12-12-----12-12-------|
Ab|-16-13-16-13-12-13-12-10-12--|-----------------------------|
Db|-----------------------------|-----------------------------|

                                          A.H.                          tr
Eb|---------------------------------------------|--------------------------|
Bb|---------------------------------------------|-15br18----17----18----20-|
Gb|-------12--------14--------15-------12-14----|--------14----14----14----|
Db|-12-12-----12-12-----12-12----12-12----------|--------------------------|
Ab|---------------------------------------------|--------------------------|
Db|---------------------------------------------|--------------------------|

     tr   tr   tr
Eb|-/17--/18--/20--|-20b22-20b22-|
Bb|----------------|-------------|
Gb|----------------|-------------|
Db|----------------|-------------|
Ab|----------------|-------------|
Db|----------------|-------------|

repeat Pre-Chorus

repeat Chorus II

Outro:

Matze & Andi

Eb|------------------------------|--------------------------|
Bb|------------------------------|--------------------------|
Gb|------------------------------|--------------------------|
Db|------------------------------|---------------------8/5/7|
Ab|-00-00-0--00000-00000011-11-1-|-00-00-0--00000-0000-5/3/5|
Db|-00-00-0--00000-00000000-00-0-|-00-00-0--00000-0000------|

Eb|------------------------------|--------------------------|
Bb|------------------------------|--------------------------|
Gb|------------------------------|--------------------------|
Db|------------------------------|---------------------5/3/2|
Ab|-00-00-0--00000-00000011-11-1-|-00-00-0--00000-0000-5/3/2|
Db|-00-00-0--00000-00000000-00-0-|-00-00-0--00000-0000-5-3-2|

Thanks for viewing guys :) I'm really appreciating it :D Please rate the tab if 
you found it correctly.
Tap to rate this tab
 
# A B C D E F G H I J K L M N O P Q R S T U V W X Y Z