Song name
# A B C D E F G H I J K L M N O P Q R S T U V W X Y Z

The Sorrow - A Reason tab

-------------------------------------------------------------------------------
                              A Reason - The Sorrow
-------------------------------------------------------------------------------

Tuning: Dropped C / C G C F A D
Tabbed by: Maxi Niessl
E-mail: themaexmon@gmx.de (ask me something if you have questions about my tabs)

Intro:

Matze:

D|-------------|------------|------------|------------|
A|-------------|------------|------------|------------|                    
F|-------------|------------|------------|------------|---------------------\
C|-3-----------|7-----------|2-----------|5-----------|                      \ 
G|-3-----------|7-----------|2-----------|5-----------|                       \
C|-3-----------|7-----------|2-----------|5-----------|                        \
                                                                                \  x2
Andi:                                                                           /
     PM    PM        PM         PM    PM        PM                             /
D|------------------------------------------------------------------------|   /
A|------------------------------------------------------------------------|  /
F|-9----10----9h10p9----- x4 ----------------------- x3 ------------------| /
C|---10----10--------10-------9----10----9h10p9----------9h10p9p7h9h10p9p7|/
G|------------------------------10----10--------12------------------------|
C|------------------------------------------------------------------------|


Pre-Verse:

Matze:
  PM - - -    PM - - -    PM -
D|---------------------------------------------------------|
A|---------------------------------------------------------|
F|---------------------------------------------------------|
C|---------------------------------------5-----------------|
G|---------3h5-----------------5-------------------7-----8-|
C|-0-0-0-0-----0-0-0-0-3h5-0-0----3--0-------3--0-----5----|
  PM - - -    PM - - -    PM -
D|---------------------------------------------------------|
A|---------------------------------------------------------|
F|---------------------------------------------------------|
C|-------------------------------------------------3--3----|
G|---------3h5-----------------5---------7---------1--1--3-|
C|-0-0-0-0-----0-0-0-0-3h5-0-0----3--0-------3--0--------3-|


Matze & Andi:
  PM - - -    PM - - -    PM -
D|---------------------------------------------------------|
A|---------------------------------------------------------|
F|---------------------------------------------------------|
C|---------------------------------------5-----------------|
G|---------3h5-----------------5-------------------7-----8-|
C|-0-0-0-0-----0-0-0-0-3h5-0-0----3--0-------3--0-----5----|
  PM - - -    PM - - -    PM -
D|---------------------------------------------------------|
A|---------------------------------------------------------|
F|---------------------------------------------------------|
C|-------------------------------------------------3--3----|
G|---------3h5-----------------5---------7---------1--1--3-|
C|-0-0-0-0-----0-0-0-0-3h5-0-0----3--0-------3--0--------3-|

Verse:

Matze:
  PM - - -    PM - - -    PM -
D|--------------------------------------------------------|
A|--------------------------------------------------------|
F|--------------------------------------------------------|
C|---------------------------------------5----------------|
G|---------3h5------------------5-----------------7-----8-|
C|-0-0-0-0-----0-0-0-0-3h5-0-0-----3--0-----3--0-----5----|
  PM - - -    PM - - -    PM                      A.H.
D|--------------------------------------------------------|
A|--------------------------------------------------------|
F|--------------------------------------------------------|
C|--------------------------------------------------------|
G|---------3h5------------------5--------7----------------|
C|-0-0-0-0-----0-0-0-0-3h5-0-0-----3--0-----3--0--5-------|

Andi:
  PM - - -    PM - - -    PM -
D|--------------------------------------------------------|
A|--------------------------------------------------------|
F|--------------------------------------------------------|
C|---------2h3------------------5--------7--------5-----7-|
G|---------------------3h5---------3--0-----3--0-----3----|
C|-0-0-0-0-----0-0-0-0-----0-0----------------------------|
  PM - - -    PM - - -    PM                      A.H.
D|--------------------------------------------------------|
A|--------------------------------------------------------|
F|--------------------------------------------------------|
C|---------2h3--------------------------------------------|
G|---------------------3h5------5--------7--------5-------|
C|-0-0-0-0-----0-0-0-0-----0-0-----3--0-----3--0----------|


Pre-Chorus:

Matze & Andi:

  PM - - - - - - - - - - - - - - - - - - - - - - - - - - - - - - - - - - 
D|----------------|------------------------------------------------------|
A|----------------|------------------------------------------------------|
F|----------------|------------------------------------------------------|
C|----------------|------------------------------------------------------|
G|-0-0--0-0--0----|---0--0-0--0-0--0-0--0-0--0-0--0-0--0-0-0-0-0-0-0-0-0-|
C|-0-0--0-0--0----|---0--0-0--0-0--0-0--0-0--0-0--0-0--0-0-0-0-0-0-0-0-0-|

PM - - - - - - - - - - - - - - - - - - - - - - - - - - - - - - - - - -
D|----------------|------------------------------------------------------|
A|----------------|------------------------------------------------------|
F|----------------|------------------------------------------------------|
C|----------------|------------------------------------------------------|
G|-0-0--0-0--0----|---0--0-0--0-0--0-0--0-0--0-0--0-0--0-0-0-0-0-0-0-0-0-|
C|-0-0--0-0--0----|---0--0-0--0-0--0-0--0-0--0-0--0-0--0-0-0-0-0-0-0-0-0-|

Chorus:

Matze:

D|-------------|------------|------------|------------|
A|-------------|------------|------------|------------|                    
F|-------------|------------|------------|------------|
C|-3-----------|7-----------|2-----------|5-----------|                      
G|-3-----------|7-----------|2-----------|5-----------|                       
C|-3-----------|7-----------|2-----------|5-----------|                        
                                                                                
Andi:                                                                          
     PM    PM        PM         PM    PM        PM                            
D|------------------------------------------------------------------------|
A|------------------------------------------------------------------------|
F|-9----10----9h10p9----- x4 ----------------------- x3 ------------------|
C|---10----10--------10-------9----10----9h10p9----------9h10p9p7h9h10p9p7|
G|------------------------------10----10--------12------------------------|
C|------------------------------------------------------------------------|

Matze & Andi:

D|-------------|-------------|-------------|-------------|
A|-------------|-------------|-------------|-------------|
F|-------------|-------------|-------------|-------------|
C|-5-----------|-5-----0-----|-2-----------|-7-----------|
G|-3-----------|-5-----0-----|-2-----------|-5-----------|
C|-3-----------|-5-----0-----|-2-----------|-5-----------|

Interlude:

Matze & Andi:

D|-----------------------|
A|-----------------------|
F|-----------------------|
C|-----------------------|
G|-1-1-1-1-1-1-1-1-1-1-1-|
C|-1-1-1-1-1-1-1-1-1-1-1-|

Matze:

D|--------------------------------|--------------------------------|
A|--------------------------------|--------------------------------|
F|--------------------------------|--------------------------------|
C|-0------------------------------|-8------------------------------|
G|-0------------------------------|-8------------------------------|
C|-0------------------------------|-8------------------------------|
                                    PM - - - - - - - - - - - - -   PM - - - 
D|--------------------------------|--------------------------------------------|
A|--------------------------------|--------------------------------------------|
F|--------------------------------|--------------------------------------------|
C|-3-------------2----------------|--------------------------------------------|
G|-3-------------3----------------|--------------------------------------------|
C|-3-------------2----------------|-0-0--0-0--0-0-0--0-0--0-0-0-0--0-0-0-0-0-0-|

Andi:

  PM - -   PM|   PM  PM  PM        PM - -   PM|   PM  PM  PM 
D|--------------------------------|--------------------------------|
A|--------------------------------|--------------------------------|
F|--------------------------------|--------------------------------|
C|-------7-----7---8---7---5h7-7-7|-------7-----7---8---7---5h7-7-7|
G|-5-5-5---5-5---5---5---5--------|-5-5-5---5-5---5---5---5--------|
C|--------------------------------|--------------------------------|

  PM - -   PM  - - - - - -   A.H.    
D|--------------------------------|------------------------------8---------|
A|--------------------------------|-8h10-10-10-8h10p8-6---10p8h8---10p8p10-|
F|--------------------------------|---------------------9------------------|
C|-------3---------------3---3----|----------------------------------------|
G|-5-5-5---5-5-5-5-5-5-5---5------|----------------------------------------|
C|--------------------------------|----------------------------------------|

repeat Verse

repeat Pre-Chorus

Interlude 2:

Matze:

  PM - - - - - - - - - - - - - - - - - - - - - - - - - - - - - - - - - - 
D|----------------|------------------------------------------------------|
A|----------------|------------------------------------------------------|
F|----------------|------------------------------------------------------|
C|----------------|------------------------------------------------------|
G|-0-0--0-0--0----|---0--0-0--0-0--0-0--0-0--0-0--0-0--0-0-0-0-0-0-0-0-0-|
C|-0-0--0-0--0----|---0--0-0--0-0--0-0--0-0--0-0--0-0--0-0-0-0-0-0-0-0-0-|

PM - - - - - - - - - - - - - - - - - - - - - - - - - - - - - - - - - -
D|----------------|------------------------------------------------------|
A|----------------|------------------------------------------------------|
F|----------------|------------------------------------------------------|
C|----------------|------------------------------------------------------|
G|-0-0--0-0--0----|---0--0-0--0-0--0-0--0-0--0-0--0-0--0-0-0-0-0-0-0-0-0-|
C|-0-0--0-0--0----|---0--0-0--0-0--0-0--0-0--0-0--0-0--0-0-0-0-0-0-0-0-0-|


Andi (could'nt hear that part enough :C ):


D|---------------------------------|
A|---------------------------------|
F|-7/2---7/2---7/2---7/3---7/5---5/|x4
C|-----0-----0-----0-----0-----0---|
G|---------------------------------|
C|---------------------------------|

repeat Chorus

Outro:

Matze & Andi:

D|----------------------------------------------------|
A|----------------------------------------------------|
F|----------------------------------------------------|
C|----------------------------------------------------|
G|---------------------------------0------------------|
C|-0-0--0-0--0-0-0-0--0-0-0--0-0-0-0--0-0-0-0--0-0-0-0|


Please rate if you've enjoyed this tab and found it tabbed correctly :)
I'm really appreciating it.
Tap to rate this tab
# A B C D E F G H I J K L M N O P Q R S T U V W X Y Z