Song name
# A B C D E F G H I J K L M N O P Q R S T U V W X Y Z

The Spookshow - Bring Out Your Dead tab

Bring Out Your Dead

Martyr AD

On Earth As It Is In Hell

Recorded in B Standard but tabbed for Drop B (B F# B E G# C#)


*-Pick crape
`-Natural Harmonic

Its pretty easy to figure out which parts are palm muted, 
so I'll leave that to you.

P.S. I didnt feel like tabbing out the harmonization,
but they are easy enough to figure out.

Have Fun!

Intro...

|---------------------------------------------------------------------|
|---------------------------------------------------------------------|
|---------------------------------------------------------------------|
|---------------------------------------------------------------------|gtr1
|0---0---0---0-*------------------------------------------------------|
|0000000000000-*------------------------------------------------------|


|---------------------------------------------------------------------|
|---------------------------------------------------------------------|
|---------------------------------------------------------------------|
|---------------------------------------------------------------------|x2
|0---0---0---0-1-0---0---0---0-4-0--0--0--0-1-0---0---0---0-4-3-2-0---|
|0000000000000-1-0000000000000-6-0000000000-1-0000000000000-6-5-4-2---|


|---------------------------------------------------------------------|
|---------------------------------------------------------------------|
|---------------------------------------------------------------------|
|---------------------------------------------------------------------|
|---------------------------------------------------------------------|
|000000-5-4-000000-5-4-000000-5-4-60503-------------------------------|


|---------------------------------------------------------------------|
|---------------------------------------------------------------------|
|---------------------------------------------------------------------|
|---------------------------------------------------------------------|
|---------------------------------0-*---------------------------------|
|000000-5-4-000000-5-4-000000-5-4-0-*---------------------------------|


|---------------------------------------------------------------------|
|---------------------------------------------------------------------|
|---------------------------------------------------------------------|
|---------------------------------------------------------------------|x2
|---8-8---8-8-7-7---8-8---8-8-7-7---5-5---5-5-3-3---3-3---3-3-011-----|
|000-0-000-0-0-0-000-0-000-0-0-0-555-5-555-5-5-5-333-3-333-3-3--------|


|---------------------------------------------------------------------|
|---------------------------------------------------------------------|
|---------------------------------------------------------------------|
|---------------------------------------------------------------------|
|5-8-7-5-8-7-5-8-3--1-*-----------------------------------------------|
|5-8-7-5-8-7-5-8-3--1-*-----------------------------------------------|


|------------------------------------------------------------------------------------|
|------------------------------------------------------------------------------------|
|------------------------------------------------------------------------------------|
|------------------------------------------------------------------------------------|x2
|7------7------7------8------8------8------10-----10-----10-----7------7------5------|
|5-0000-5-0000-5-0000-5-0000-5-0000-5-0000-7-0000-7-0000-7-0000-5-0000-5-0000-3------|


|---------------------------------------------------------------------|
|---------------------------------------------------------------------|
|---------------------------------------------------------------------|
|---------------------------------------------------------------------|
|8-8757-5-3-5---------------------------------------------------------|
|8-8757-5-3-5---------------------------------------------------------|


|---------------------------------------------------------------------|
|---------------------------------------------------------------------|
|---------------------------------------------------------------------|
|---------------------------------------------------------------------|
|0000000000000000-0000000000000000-0000000000000000-0000000000000000--|
|0000000000000000-0000000000000000-0000000000000000-0000000000000000--|


|----------------------------------------------------------------------|
|----------------------------------------------------------------------|
|----------------------------------------------------------------------|
|----------------------------------------------------------------------|
|0000000000000000-0000000000000000-0000000000000000-000000-8-8757-5-3-5|
|0000000000000000-0000000000000000-0000000000000000-000000-8-8757-5-3-5|


|---------------------------------------------------------------------|
|---------------------------------------------------------------------|
|---------------------------------------------------------------------|
|---------------------------------------------------------------------|x2
|---8-8---8-8-7-7---8-8---8-8-7-7---5-5---5-5-3-3---3-3---3-3-011-----|
|000-0-000-0-0-0-000-0-000-0-0-0-555-5-555-5-5-5-333-3-333-3-3--------|

|---------------------------------------------------------------------|
|---------------------------------------------------------------------|
|---------------------------------------------------------------------|
|---------------------------------------------------------------------|
|5-8-7-5-8-7-5-8-3--1-*-----------------------------------------------|
|5-8-7-5-8-7-5-8-3--1-*-----------------------------------------------|

|------------------------------------------------------------------------------------|
|------------------------------------------------------------------------------------|
|------------------------------------------------------------------------------------|
|------------------------------------------------------------------------------------|x2
|7------7------7------8------8------8------10-----10-----10-----7------7------5------|
|5-0000-5-0000-5-0000-5-0000-5-0000-5-0000-7-0000-7-0000-7-0000-5-0000-5-0000-3------|



|---------------------------------------------------------------------|
|---------------------------------------------------------------------|
|---------------------------------------------------------------------|
|---------------------------------------------------------------------|
|8-8757-5-3-5---------------------------------------------------------|
|8-8757-5-3-5---------------------------------------------------------|



|---------------------------------------------------------------------|
|---------------------------------------------------------------------|
|---------------------------------------------------------------------|
|---------------------------------------------------------------------|
|0---0---0---0-*------------------------------------------------------|
|0000000000000-*------------------------------------------------------|



|---------------------------------------------------------------------|
|---------------------------------------------------------------------|
|---------------------------------------------------------------------|
|---------------------------------------------------------------------|x2
|0---0---0---0-1-0---0---0---0-4-0--0--0--0-1-0---0---0---0-4-3-2-0---|
|0000000000000-1-0000000000000-6-0000000000-1-0000000000000-6-5-4-2---|


|---------------------------------------------------------------------|
|---------------------------------------------------------------------|
|---------------------------------------------------------------------|
|---------------------------------------------------------------------|
|---------------------------------------------------------------------|
|000000-5-4-000000-5-4-000000-5-4-60503-------------------------------|


|---------------------------------------------------------------------|
|---------------------------------------------------------------------|
|---------------------------------------------------------------------|
|---------------------------------------------------------------------|
|---------------------------------0-----------------------------------|
|000000-5-4-000000-5-4-000000-5-4-0-----------------------------------|

Bring out your dead...

|---------------------------------------------------------------------|
|---------------------------------------------------------------------|
|---------------------------------------------------------------------|
|---------------------------------------------------------------------|gtr2
|0--------------------------------------------------------------------|
|0--------------------------------------------------------------------|



|---------------------------------------------------------------------|
|---------------------------------------------------------------------|
|---------------------------------------------------------------------|
|---------------------------6-----------------------3-----------------|gtr1
|6h9p6---------6h9p6---5h8p5-6h9p6---------6h9p6----3-----------------|
|-----000000000-----000-----------000000000-----000-------------------|



|---------------------------------------------------------------------|
|---------------------------------------------------------------------|
|---------------------------------------------------------------------|
|---------------------------6-----------------------3-----------------|gtr2
|6h9p6---------6h9p6---5h8p5-6h9p6---------6h9p6----3-----------------|
|-----000000000-----000-----------000000000-----000-------------------|

|---------------------------------------------------------------------|
|---------------------------------------------------------------------|
|---------------------------------------------------------------------|
|---------------------------6-----------------------3-----------------|both x2
|6h9p6---------6h9p6---5h8p5-6h9p6---------6h9p6----3-----------------|
|-----000000000-----000-----------000000000-----000-------------------|



|-----------------------------------------------3`--------------------|
|-----------------------------------------------3`--------------------|
|-----------------------------------------------3`--------------------|
|-----------------------------------------------3`--------------------|
|3-4-0000000-0-00000000-3-4-00000000-0-00000000-3`--------------------|
|3-4-0000000-0-00000000-3-4-00000000-0-00000000-3`--------------------|


|---------------------------------------------------------------------|
|---------------------------------------------------------------------|
|---------------------------------------------------------------------|
|---------------------------6-----------------------3-----------------|x2
|6h9p6---------6h9p6---5h8p5-6h9p6---------6h9p6----3-----------------|
|-----000000000-----000-----------000000000-----000-------------------|


|-------------------------------------------------------------------|
|-------------------------------------------------------------------|
|-------------------------------------------------------------------|
|-------------------------------------------------------------------|
|3-4-0000000-0-00000000-3-4-00000000-0-00000------------------------|
|3-4-0000000-0-00000000-3-4-00000000-0-00000------------------------|



The End!
Tap to rate this tab
# A B C D E F G H I J K L M N O P Q R S T U V W X Y Z