Song name
# A B C D E F G H I J K L M N O P Q R S T U V W X Y Z

The Staves - Winter Trees tab

Tuning- drop b -> a 
                      
     Intro
e||-------------------|
a||-------------------|
G||----0---0---0---0--|
D||--0---0---0---0----|
A||-5-5-5-5-5-5-5-5---|
E||-------------------|

   White winter trees...
e||---------------------------------------------------------------------|
a||---------------------------------------------------------------------|
G||---------0--0--0--0--0--0------------------------------0---0---0---0-|
D||--0-0-0--------------------0-0-0-0-0-0-0-0-0-0-0-0-0-0---0---0---0---|
A||-5-7-9-12-12-12-12-14-12-10-9-9-9-9-7-9-8-8-8-8-7-9-5-5-5-5-5-5-5-5--|
E||---------------------------------------------------------------------| 

Repeat


I'll work out the chorus and bridge later =D


    
Tap to rate this tab
# A B C D E F G H I J K L M N O P Q R S T U V W X Y Z