Song name
# A B C D E F G H I J K L M N O P Q R S T U V W X Y Z

The Stooges - Penetration tab

Help us improve GuitareTab! Take a short survey!
#----------------------------------PLEASE NOTE---------------------------------#
#This file is the author's own work and represents their interpretation of the #
#song. You may only use this file for private study, scholarship, or research. #
#------------------------------------------------------------------------------##
#

From: "Niklas Aronsson" 
Date: Wed, 28 Feb 1996 12:59:38 +0100


The Stooges:Penetration

Try it in the fift position for that extra stooge sound.I don t have
time to type that out but you should manage to do it.

E---------------------------------------------------------------------|
B----------------1----------------------------------------------------|
G---------0h2------------0h2--0---------------------------------------|
D------------------------------------------2--------------------------|
A-0--0-------------0--0-------------0-0-------------------------------|
E---------------------------------------------------------------------|

E--------------------------------------------------------------------|
B----------------1--------------------------------0------------------|
G---------0h2--------------------------------0-----------------------|
D----------------------------------2-------4-------------------------|
A-0--0---------------0--3--0-3-------5-------------------------------|
E--------------------------------------------------------------------|
Related for Penetration tab