Guitaretab - guitar tabs
Song name
# A B C D E F G H I J K L M N O P Q R S T U V W X Y Z

The Strokes - Someday tab

From: victor039@hotmail.com
Subject: s/strokes/someday.tab
Date: Sat, 10 Nov 2001 23:26:45 -0500

Song: Someday
Artist: The Strokes
Album: Is This It?
Tabbed by: Victor Rodriguez 

I've missed nice rock songs like this. There are two
simple guitar parts; the rhythm guitar's chords are written
above the lead guitar's tab. Listen to the album to get
down the strumming.

Chords:

   EBGDAE
A: 556775
D: 577755
E: 799977

Verse:

   A       D          D          A

E|-5---7------5---7------9---7------7---5----|
B|-5---7------5---7------9---7------7---5----|
G|-6---7------6---7------9---7------7---6----|
D|-7---7------7---7------9---7------7---7----|
A|-------------------------------------------|
E|-------------------------------------------|


Chorus:

   D                                            A

E|-10-13-10------11---------10------------7-----5-------|
B|------------12----12---10----10---------7-----5-------|
G|----------------------------------------7-----6-------|
D|----------------------------------------7-----7-------|
A|------------------------------------------------------|
E|------------------------------------------------------|

Repeat the above tab 4x
Then end chorus with the E chord

If you don't have a bass, this guitar works for the Interlude:

E|-------------------------|
B|-------------------------|
G|-------------------------|
D|-------------------------|
A|-------------5-5---------|
E|-5-5---7-7---------5-5---|


Verse

Chorus

End song with A chord




[ Tab from: http://www.guitaretab.com/t/the-strokes/23082.html ]
Related for Someday tab
×
Someday