Song name
# A B C D E F G H I J K L M N O P Q R S T U V W X Y Z

The Strokes - Alone, Together tab

I had to add the correct version to this tab.
The one submitted was off. This one is very close
if not the same as the song. Enjoy!(This song has
fast rythmn. Listen to song to get the beats down)

Tuning: Standard(eBGDAE)

Intro/Main Riff

e|-----------------------------------|
B|-----------------------------------|
G|-----5-----------------5-----------|
D|-------7------5-7--------7-----5-7-|
A|----------5-5--------------5-5-----|
E|-5-5---------------5-5-------------|

Solo:

e|----------------------------------------------------------------
B|-17h16h17-------------------------------------------------------
G|----------14h17-14h17-14h17-14h17-17----------------------------
D|-------------------------------------15h17-15h17-15h17-15h17-17-
A|----------------------------------------------------------------
E|----------------------------------------------------------------

e|---------------------------------------------------------
B|---------------------------------------------------------
G|-14h17-14h17-14h17-14h17-17--17h19-17h19-17h19-17h19-19--
D|---------------------------------------------------------
A|---------------------------------------------------------
E|---------------------------------------------------------

e|----------------------------------------------------------------------------------
B|----------------------------------------------------------------------------------
G|-14h17-14h17-14h17-14h17-17----------------------------14h17-14h17-14h17-14h17-17-
D|----------------------------15h17-15h17-15h17-15h17-17----------------------------
A|----------------------------------------------------------------------------------
E|----------------------------------------------------------------------------------

e|----------------------------9b---------------------------|
B|-------------------------------7-9b----------------------|
G|-17h19-17h19-17h19-17h19-19---------9b-7-----------------|
D|-----------------------------------------9b--8-8-7-6-5-4-| End of Solo
A|---------------------------------------------------------|
E|---------------------------------------------------------|

Solo is played fast, but the bends at the end of the solo are short, not full bends.
Tap to rate this tab
# A B C D E F G H I J K L M N O P Q R S T U V W X Y Z