Song name
# A B C D E F G H I J K L M N O P Q R S T U V W X Y Z

The Strokes - 12: 51 tab

Help us improve GuitareTab! Take a short survey!
Strokes - 12:51
Room On Fire

CHORDS

C6      [X X 10 9 10 X]
E/G     [X X 9 9 9 X]
E       [0 2 2 1 0 0]
A5      [5 7 7 0 0 0]
F#5     [2 4 4 0 0 0]
B5      [7 9 9 0 0 0]



Guitar 1 ---->>>

[E]                [A5]
Talk to me now, I'm older

[F#5]                          [B5]
Your friends withdrew 'cause I told her

[E]                    [A5]
Friday nights have been lonely

[F#5]                     [B5]
Change your plans and then phone me

Guitar 2 ---->>>

<< Interlude.
e|-----------------------------------------------------|
B|-12-----------12-----------12------------------------|
G|----13-11-13-----13-11-13-----13-11-13--9-13-11-13---|  2X
D|-----------------------------------------------------|
A|-----------------------------------------------------|
E|-----------------------------------------------------|
>>

[E]                   [A5]
Oh, we could go and get 40s

[F#5]             [B5]
Fuck going to that party

[E]                       [A5]
Oh really, your folks are away now?

[F#5]                    [B5]
Alright, let's go! You've convinced me

[Interlude]


[C6]         [E/G]               [C6]
12:51 is the time my voice found the words I sought

        [E/G]           [C6] 
Is it the stage I want?

                     [E/G]   
The world is shutting out for us

       [C6]                     [E/G]   
Oh, we were tense for sure, but we was confident


[E]                [A5]
Kiss me now and I'm older

[F#5]              [B5]
I won't try to control you

[E]                    [A5]
Friday nights have been lonely

[F#5]                 [B5]
Take it slow but don't warn me


[E]                    [A5]
Oh, we'd could go and get 40s

[F#5]               [B5]
Then we'd go to some party

[E]                      [A5]
Oh really, your folks are away now?

[F#5]                     [B5]           [Interlude]
Alright, I'm coming... I'll be right there


Guitarra Solo
(Acompanha toda a musica e toca o "Interlude")

e|----------------------------------------------------------------------------|
B|-9--------9---------------------------9--------9----------------------------|
G|---9-11-9---11-9---11-8-9-8-11--9-8-----9-11-9---11-9---11-8-9-8-11--9-8----|
D|----------------------------------------------------------------------------|
A|----------------------------------------------------------------------------|
E|----------------------------------------------------------------------------|

e|-----------------------------------------------------|
B|-12-----------12-----------12------------------------|
G|----13-11-13-----13-11-13-----13-11-13--9-13-11-13---|  2X
D|-----------------------------------------------------|
A|-----------------------------------------------------|
E|-----------------------------------------------------|

e|----------------------------------------------------------------------------|
B|-9--------9---------------------------9--------12-10-9----------------------|
G|---9-11-9---11-9---11-8-9-8-11--9-8-----9-11-9----------11-8-9-8-11--9-8----|
D|----------------------------------------------------------------------------|
A|----------------------------------------------------------------------------|
E|----------------------------------------------------------------------------|

e|-----------------------------------------------------|
B|-12-----------12-----------12------------------------|
G|----13-11-13-----13-11-13-----13-11-13--9-13-11-13---|  2X
D|-----------------------------------------------------|
A|-----------------------------------------------------|
E|-----------------------------------------------------|

Parte do refrao > (* = Aproximadamente 5 segundos de um para outro)

e|------------------12----------------------------12-----------12--------------------------|
B|-13-15-12-13--*------15-13-12--*-13-15-12-13--*----15-13-12--------15-13-12-------15-----|
G|----------------------------------------------------------------14-------------14--------|
D|----------------------------------------------------------------------------14-------14--|
A|-----------------------------------------------------------------------------------------|
E|-----------------------------------------------------------------------------------------|

e|-12-----------------------------12----------------------|
B|----15-13-12--*--13-15-12-13-*-----15-13-12---13-12-13--|
G|--------------------------------------------------------|
D|--------------------------------------------------------|
A|--------------------------------------------------------|
E|--------------------------------------------------------|

e|----------------------------------------------------------------------------|
B|-9--------9---------------------------9--------12-10-9----------------------|
G|---9-11-9---11-9---11-8-9-8-11--9-8-----9-11-9----------11-8-9-8-11--9-8----|
D|----------------------------------------------------------------------------|
A|----------------------------------------------------------------------------|
E|----------------------------------------------------------------------------|

e|----------------------------------------------------------------------------|
B|-9--------9---------------------------9--------12-10-9----------------------|
G|---9-11-9---11-9---11-8-9-8-11--9-8-----9-11-9----------11-8-9-8-11--9-8----|
D|----------------------------------------------------------------------------|
A|----------------------------------------------------------------------------|
E|----------------------------------------------------------------------------| 

e|-----------------------------------------------------|
B|-12-----------12-----------12------------------------|
G|----13-11-13-----13-11-13-----13-11-13--9-13-11-13---|
D|-----------------------------------------------------|
A|-----------------------------------------------------|
E|-----------------------------------------------------|


The complete tab. I guess nothing's wrong. Anything, email: guilhermecarli@hotmail.com

Thanx
Related for 12: 51 tab