Song name
# A B C D E F G H I J K L M N O P Q R S T U V W X Y Z

The Strokes - Soma tab

Cool song. The intro and verses are neat.
Enjoy!

Tuning:Standard (eBGDAE)

Intro:

e|----------10----------10-|                         Order:
B|-----8-8----------8-8----|                               Intro 1x
G|-9-9----------9-9--------|                               Verse 5x
D|-------------------------|                               Chorus 4x
A|-------------------------|                               Intro 1x
E|-------------------------|                               Verse 5x
                                                           Chorus 6x
Verse 1:                                                   

e|----------10-----------10-----------8-----------8-|
B|-----8-8----------8-8----------6-6---------6-6----|
G|-9-9----------9-9----------7-7---------7-7--------| 
D|--------------------------------------------------|
A|--------------------------------------------------|
E|--------------------------------------------------|

Chorus:

e|-10-10-10-10-10-10--9-9-9-9--10-10-10-10-10-10--8-8-8-8-|
B|--0--0--0--0--0--0--0-0-0-0---0--0--0--0--0--0--0-0-0-0-|
G|--7--7--7--7--7--7--6-6-6-6---7--7--7--7--7--7--5-5-5-5-|
D|--------------------------------------------------------|
A|--------------------------------------------------------|
E|--------------------------------------------------------|
Tap to rate this tab
# A B C D E F G H I J K L M N O P Q R S T U V W X Y Z