The Swellers - Fire Away tab

The Swellers
Fire Away

HALF-STEP DOWN
DROP D

This is the rhythm guitar tab for the intro, verse and chorus.

INTRO
-----------------------------------|
-----------------------------------|
-----------------------------------|   X3
11111111-33333333-5555555555555555-|
11111111-33333333-5555555555555555-|
11111111-33333333-5555555555555555-|

---------------------------------------------|
---------------------------------------------|
--------------------333322333322333322333322-|   X1
11111111-33333333-0-XXXXXXXXXXXXXXXXXXXXXXXX-|
11111111-33333333-0-111111111111111111111111-|
11111111-33333333-0--------------------------|

VERSE
--------------------------------------------------------------------|
--------------------------------------------------------------------|
3333333333333333-2222222222222222-----------------------------------|   X4
XXXXXXXXXXXXXXXX-0000000000000000-555-3-5-111-3-5-111-3-5-3333333-0-|
1111111111111111-0000000000000000-555-3-5-111-3-5-111-3-5-3333333-0-|
-----------------0000000000000000-555-3-5-111-3-5-111-3-5-3333333-0-|

CHORUS
-----------------------------------|
-----------------------------------|
-----------------------------------|   X3
11111111-33333333-5555555555555555-|
11111111-33333333-5555555555555555-|
11111111-33333333-5555555555555555-|

---------------------------------------------|
---------------------------------------------|
--------------------333322333322333322333322-|   X1
11111111-33333333-0-XXXXXXXXXXXXXXXXXXXXXXXX-|
11111111-33333333-0-111111111111111111111111-|
11111111-33333333-0--------------------------|

VERSE II
--------------------------------------------------------------------|
--------------------------------------------------------------------|
3333333333333333-2222222222222222-----------------------------------|   X2
XXXXXXXXXXXXXXXX-0000000000000000-555-3-5-111-3-5-111-3-5-3333333-0-|
1111111111111111-0000000000000000-555-3-5-111-3-5-111-3-5-3333333-0-|
-----------------0000000000000000-555-3-5-111-3-5-111-3-5-3333333-0-|

--------------------------------------------------------------------|
--------------------------------------------------------------------|
3333333333333333-2222222222222222---------333-----555-----8888888---|   X1
XXXXXXXXXXXXXXXX-0000000000000000-555-3-5-333-3-5-555-3-5-8888888-8-|
1111111111111111-0000000000000000-555-3-5-111-3-5-333-3-5-6666666-5-|
-----------------0000000000000000-555-3-5-----3-5-----3-5-----------|

--------------------------------------------------------------------|
--------------------------------------------------------------------|
3333333333333333-2222222222222222-----------------------------------|   X1
XXXXXXXXXXXXXXXX-0000000000000000-555-3-5-111-3-5-111-3-5-3333333-0-|
1111111111111111-0000000000000000-555-3-5-111-3-5-111-3-5-3333333-0-|
-----------------0000000000000000-555-3-5-111-3-5-111-3-5-3333333-0-|
                                   (Play these quieter)
Tap to rate this tab
 
# A B C D E F G H I J K L M N O P Q R S T U V W X Y Z