Song name
# A B C D E F G H I J K L M N O P Q R S T U V W X Y Z

The Teen Idles - Adventure tab

Part A
E|------------------------|------------------------|-------------------------|
B|------------------(x )--|------------------(x )--|-------------------(x )--|
G|------------------------|------------------------|-------------------------|
D|------------------------|------------------------|-------------------------|
A|-----------1-1-2--------|--1-1-4-1--1-1-2--------|-----------1-1-2---------|
E|--1-1-4-1---------------|------------------------|--1-1-4-1----------------|

   Part B
E|---------------------------------------------------------------------------|
B|---------------------------------------------------------------------------|
G|--5-5-5-5--8--10-----------6-8---------------------------------------------|
D|--5-5-5-5--8--10--8-8-8-8--6-8--3--8--6---3--3-----------------------------|
A|--3-3-3-3--6--8---8-8-8-8--4-6--3--8--6---3--3-----------------------------|
E|------------------6-6-6-6-------1--6--4---1--1-----------------------------|

   Repeat Part I/ Part II x2

   Part III
E|---------------------------------------------------------------------------|
B|---------------------------------------------------------------------------|
G|-----------5--5-3--3-------------------------------------------------------|
D|--3--8--3--5--5-3--3--3---6-6----------------------------------------------|
A|--3--8--3--3--3-1--1--3----------------------------------------------------|
E|--1--6--1-------------1----------------------------------------------------|

   Repeat Part I
   
   Repeat Part II x2

E|---------------------------------------------------------------------------||
B|---------------------------------------------------------------------------||
G|---------10----------------------------------------------------------------||
D|--3-3-3--10----------------------------------------------------------------||
A|--3-3-3--8-----------------------------------------------------------------||
E|--1-1-1--------------------------------------------------------------------||

Tap to rate this tab
# A B C D E F G H I J K L M N O P Q R S T U V W X Y Z