Song name
# A B C D E F G H I J K L M N O P Q R S T U V W X Y Z

The Trews - Man Of Two Minds chords

Highlighted       Show chord diagrams
The Trews - Man Of Two Minds
Slow 6/8   G/B = x20003  Gsus = 3x0013  Fsus2 = x33011
Intro
 C
---3-------3----------3-------3------|x8
-------1-------1----------1-------1--|
-0---0-------0---0--0---0-------0---0|
-------------------------------------|
-------------------------------------|
-------------------------------------|

Verse 1
  C                        G/B                  Am     G          
Tryin' to build a bridge across my heart's divide
 C                 G/B         Am      G 
Caught between two opposite sides
   C             G/B           Am      G
I want it all but I can't decide
   C                           G/B               Am    G    Fsus2
If I should leave you here or stay with you a while

Chorus
   C         G/B          Am              Gsus
I love you I love her; I need you I need her
   Fsus2               C      Fsus2               G
I'm always gonna love you; I'm always gonna love her
   C                  G/B             Am    Gsus     
I guess I should just let this thing die
     Fsus2    G          *
Cause I am a man of two minds

--------------------|-3------------------|
--------------------|-0------------------|
--------------------|-0------------------|
--3--2--0-----------|-0------------------|
-----------3--2--0--|-2------------------|
--------------------|-3------------------|

Verse 2
  C                G/B           Am     G
Standin' all alone by the river side
 C                    G/B          Am     G
Runnin' out of reasons I can justify
  C          G/B      Am     G
What kind of man am I?
  C                    G/B              Am  G   Fsus2
Who can tell a lie and look you in the eye,     yeah

Chorus
   C         G/B          Am              Gsus
I love you I love her; I need you I need her
   Fsus2               C      Fsus2               G
I'm always gonna love you; I'm always gonna love her
   C                  G/B             Am    Gsus     
I guess I should just let this thing die
     Fsus2    G          **
Cause I am a man of two minds
 **   
(F)      (C)       (G)
------------------|----------------------|
------------------|-0---1---1-0----0-0-0-|
-2--0--0----------|-0---2---2-0----0-0-0-|
-3--2--0--2--0--0-|-0---0---0-0----0-0-0-|
----------3--2--0-|-x--------------2-2-2-|
------------------|-3--------------3-3-3-|

Bridge
                    **                 **
There's not much to say; there's no alibi
             
                                         Dm
            ------------------|----------1---------|
            ------------------|----------3---------|
            -2--0--0----------|----------2---------|
            -3--2--0--2--0--0-|----------0---------|
            ----------3--2--0-|--------------------|
            ------------------|-3--1--0------------|
My selfish greed;                        my foolish pride


Chorus
   C         G/B          Am              Gsus
I love you I love her; I need you I need her
   Fsus2               C      Fsus2               G
I'm always gonna love you; I'm always gonna love her
   C                  G/B             Am    Gsus     
I guess I should just let this thing die
     Fsus2    G           C    G/B   Am   G  Gsus  G
Cause I am a man of two minds

   Fsus2               C      Fsus2               G
I'm always gonna love you; I'm always gonna love her
   C                  G/B             Am    Gsus     
I guess I should just let this thing die
     Fsus2    G   Fsus2    G          *** 
Cause I am a man   I am a man of two minds

 ***
------------------|--------------------|
------------------|--------------------|
------------------|--------------------|
-3--2--0----------|----------0---------|
----------3--2--0-|--------------------|
------------------|-3--1--0------------|

Tap to rate this tab
# A B C D E F G H I J K L M N O P Q R S T U V W X Y Z