Song name
# A B C D E F G H I J K L M N O P Q R S T U V W X Y Z

The Trews - Poor Ol Broken Hearted Me tab

-------------------------------------------------------------------------------
			     Poor Ol' Broken Hearted Me
                             The Trews - Den Of Thieves
-------------------------------------------------------------------------------
Tabbed by: Ryan Levangie
Email: rlevangie@hotmail.com

Tuning: Standard

  INTRO:

e|----------------------------|x2
B|----------------------------|
G|--------------4-4-2---------|
D|--4-4-2-------------4-------|
A|--------4-------------5-----|
E|----------5-----------------|

  VERSE 1:

 (0:18)
e|----------------------------|x3 |----------------------------|
B|----------------------------|   |----------------------------|
G|--------------4-4-2---------|   |--------------4-4-2---------|
D|--4-4-2-------------4-------|   |--4-4-2-------------4-------|
A|--------4-------------5-----|   |--------4-------------5-2---|
E|----------5-----------------|   |----------5-----------------|

  CHORUS:

 (0:39)                         (A) (E)
e|-----------------------5-------0---0------------0-----|
B|-----------------------5-------3---0------------0-----|
G|--9---7---8--5h6---5h6-----3---3---1--0h1---0h1-------|
D|--9---7---7------7---------4---3---2------2-----------|
A|--7---5---7----------------4---0---2------------------|
E|--7---5---5----------------2---0---0------------------|

                                (A) (E)
e|-----------------------5-------0---0------------------|
B|-----------------------5-------3---0------------------|
G|--9---7---8--5h6---5h6-----3---3---1------------------|
D|--9---7---7------7---------4---3---2------------------|
A|--7---5---7----------------4---0---2------------------|
E|--7---5---5----------------2---0---0------------------|

 VERSE 2:

 (0:59)
e|------------------x-x----------------------x-x--------|x3
B|------------------x-x----------------------x-x--7-----|
G|-------------8-9--x-x--8---4-4-2------8-9--x-x--6-----|
D|--4-4-2------9-9--x-x--9---------4----9-9--x-x--4-----|
A|--------4----7-7--x-x--9-----------5--7-7--x-x--4-----|
E|----------5--7-7--x-x--7--------------7-7--x-x--------|


e|------------------x-x---------------------------------|
B|------------------x-x---------------------------------|
G|-------------8-9--x-x--8---4-4-2-----4-4-2------------|
D|--4-4-2------9-9--x-x--9---------4---------4----------|
A|--------4----7-7--x-x--9-----------5---------5--------|
E|----------5--7-7--x-x--7------------------------------|


  (CHORUS)
  (1:21)

  BEFORE SOLO:
  (1:37)

     _ This note is played at the same time as the last(E)in the previous
    |  chorus.
    |
e|--|------------------------------------------------------------------|
B|--|------------------------------------------------------------------|
G|--v------------------------------------------------------------------|
D|--2--4p2---2-0-1---2--4p2---2-0-1---2--4p2---2-0-1---2--4p2---2-0----|
A|---------5----------------5----------------5----------------5-----4--|
E|---------------------------------------------------------------------|

   SOLO: (other guitar plays chorus)

 (2:01)
e|-----2-2---2-2---2-2---2-2---2-2-----|
B|-----2-2---2-2---2-2---2-2---2-2-----|
G|--4^-----4^----4^----4^----4^--------|
D|-------------------------------------|
A|-------------------------------------|
E|-------------------------------------| .... Wing it from there


 VERSE 3:

 (2:23)
e|------------------x-x----------------------x-x--------|x2
B|------------------x-x----------------------x-x--7-----|
G|-------------8-9--x-x--8---4-4-2------8-9--x-x--6-----|
D|--4-4-2------9-9--x-x--9---------4----9-9--x-x--4-----|
A|--------4----7-7--x-x--9-----------5--7-7--x-x--4-----|
E|----------5--7-7--x-x--7--------------7-7--x-x--------|


  CHORUS -(after claps)

 (2:49)
e|-------------------------7------------------------2---|x7  (fades out)
B|-------------------------7------------------------2---|
G|--11---9---10--7h8---7h8--------4---3--2h3---2h3------|
D|--11---9---9-------9--------6---4---4------4----------|
A|--9----7---9----------------6---2---4-----------------|
E|--9----7---7----------------4---2---2-----------------|


| /  slide up
| \  slide down
| h  hammer-on
| p  pull-off
| ~  vibrato
| +  harmonic
| x  Mute note
===============================================================================
Tabbed By Ryan Levangie
2007
Tap to rate this tab
 
# A B C D E F G H I J K L M N O P Q R S T U V W X Y Z